Oops, an error
Loading. Please wait.

Shimmy Shimmy Quarter Turn Bass Tab

version 1
version 1

Whole song

Interactive

639 views 1 this week
no commentswrite comment
1 2 3 4 5
please rate
add to favorites
launch autoscroll
font size
0
reset
guitar tuner
Tab Pro tools
  • play this tab
  • loop segment
  • change instrument
  • show fretboard
  • metronome
×
Best way to learn
"Shimmy Shimmy Quarter Turn"
Autoscroll
slow
fast
+/-
esc
set tempo
stop
Contributor
-------------------------------------------------------
   "Shimmy Shimmy Quarter Turn" - Hellogoodbye
-------------------------------------------------------
Tabbed by: Justin RiRaY
Email: Pakman7JR@hotmail.com       AIM: BeatPwner

Tuning: EADG

     INTRO
 
G|---------------------------|
D|---------------------------| 
A|--------4-4----------------| X2
E|--0-0--------4-4---5--5----|


     Pre-VERSE 
 
G|------------------------------------|
D|------------------------------------|
A|----------4444-4-4------------------| X2
E|-0000-0-0----------4444-4-4-5-5-5-5-|


     VERSE
 
G|-------------6-66-66-------------------------|
D|------------------------6-66-66-----7-77-77--| X2
A|--7-77-77------------7x----------0x----------|
E|----------0x---------------------------------|

   
          *Pre-VERSE

          *VERSE

     Pre-CHORUS
 
G|----------------------------------------------|
D|----------------------------------------------|
A|--444-2-----------------444-2-----------------|
E|--------0000--222-4-55--------0000--222-4-55--|
 
G|-----------------------------------------------|
D|-----------------------------------------------|
A|--444-2------------------444-2------00000000---|
E|--------0000--222-4-5-5--------0000----------0-|


     CHORUS
 
G|-----------------------------------------|
D|-----------------------------------------|
A|-----------0000-0-0--4444-4-4--2-2-24----|
E|--0000-0-0----------------------------0--|


     Softer VERSE
 
G|--------|
D|--------|
A|--------|
E|-0~-----|
 
G|----------------------------------|
D|----------------------------------|
A|----------------------------------|
E|--0~-(2)-(4)-(5)--0--(2)-(4)-(5)--|


     BRIDGE
 
G|--------------------------------------------|
D|--------------------------------------------|
A|--444-2----------------444-2----------------|
E|--------0000-222-4-55--------0000-222-4-5-5-|
 
G|--------------------------|
D|--------------------------|
A|--444-2------00000000-----|
E|--------0000-----------0--|


          *CHORUS 

          *CHORUS


| ~  let ring
| x  mute note end
comments
We did not receive enough feedback on this tab! Please rate:
print report bad tab
1 2 3 4 5
I want to post or [tab]
guest
You may want to rate the tab now too:
select rating
Please do not post tabs as comments. Select "correction" instead!