Oops, an error
Loading. Please wait.

Shimmy Shimmy Quarter Turn Tab

version 1
version 1

Whole song

Interactive

4,152 views 1 this week
12 commentsread comments
1 2 3 4 5
accurate
x 11
add to favorites
launch autoscroll
font size
0
reset
how to read this tab
guitar tuner
Autoscroll
slow
fast
+/-
esc
set tempo
stop
Help us to improve Ultimate-Guitar.com Take our survey!
×
Author
---------------------------------------------------------------------
           Shimmy Shimmy Quarter Turn - Hellogoodbye
                 
                purevolume.com/hellogoodbye/
---------------------------------------------------------------------

Tabbed by: Justin RiRaY              My moves will be so hot
                                You'll have to stand under the fan.
Email: Pakman7JR@hotmail.com

Tuning: EADGBe

     These guys have the most unusual style of music I've heard 
in a while. But they are awesome. Oh yea, this song seems to
have 2 kinda of VERSEs... so, I called the 2nd set of VERSEs
"Softer VERSEs" lol


     INTRO/PRE-VERSE

e|-------------------------------------------------------------------|
B|-------------------------------------------------------------------|
G|-------66----------------   ---------------------------------------|
D|--22---66---66---7-7---- X4 ---------------------------------------|
A|--22---44---66---7-7----   ----------------------------------------|
E|--00--------44---5-5-----------------------------------------------|


     VERSE

e|-----12------------------------------------------------------------|
B|--------12---------------------------------------------------------|
G|-------------------------------------------------------------------|
D|--2----------------------------------------------------------------|
A|--2---------4--44-44-----------------------------------------------|
E|--0-------------------4--44-44--5-5-5-5----------------------------|

e|-------x-12--------------------------------------------------------|
B|-------------------------------------------------------------------|
G|-------------------------------------------------------------------|
D|--2----------------------------------------------------------------|
A|--2----------4--44-44----------------------------------------------|
E|--0--------------------4--44-44--5-5-5-5---------------------------|


     *PRE-VERSE X2
     
     VERSE 2  

e|-----x-12~---------------------------------------------------------|
B|-------------------------------------------------------------------|
G|-------------------------------------------------------------------|
D|--2----------------------------------------------------------------|
A|--2----------4--44-44----------------------------------------------|
E|--0--------------------4--44-44--5-5-5-5---------------------------|

e|-------------------------------------------------------------------|
B|-------------------------------------------------------------------|
G|-------------------------------------------------------------------|
D|--2----------------------------------------------------------------|
A|--2----------4--44-44----------------------------------------------|
E|--0--00-00-------------4--44-44--5-5-5-5---------------------------|
   

     BRIDGE

e|-------------------------------------------------------------------|
B|-------------------------------------------------------------------|
G|--666-------------------666----------------------------------------|
D|--666-6-222-444-6-77----666-6-222-444-6-77-------------------------|
A|--444-6-222-444-6-77----444-6-222-444-6-77-------------------------|
E|------4-000-222-4-55--------4-000-222-4-55-------------------------|

e|----------------------------------------9--12----------------------|
B|-------------------------------------------------------------------|
G|--666-------------------666----------------------------------------|
D|--666-6-222-444-6-7-7---666-6-7-7-7-7--2---------------------------|
A|--444-6-222-444-6-7-7---444-6-7-7-7-7--2---------------------------|
E|------4-000-222-4-5-5-------4-5-5-5-5--0---------------------------|


     CHORUS X2

e|-------------------------------------------------------------------|
B|-------------------------------------------------------------------|
G|--------------------------------0-0---------   --------------------|
D|--2222-2-2--7777-7-7--6666-6-6--0-0-------- X2 --------------------|
A|--2222-2-2--7777-7-7--6666-6-6--2-2-2-4----   ---------------------|
E|--0000-0-0--5555-5-5--4444-4-4----------0--------------------------|


     Softer VERSE

e|---------------------------5~--------------------------------------|
B|---------------------------5~--------------------------------------|
G|---------------------------2~--------------------------------------|
D|--2~/9-----7-------------------------------------------------------|
A|--2~/9-----7-------------------------------------------------------|
E|--0~-------0-------------------------------------------------------|

e|--------------------------------------------------19~--x-----------|
B|-------------------------------------------------------------------|
G|-------------------------------------------------------------------|
D|--2~--4~--6~--6~------2x--4x--6x--6x-----------14------------------|
A|--2~--4~--6~--6~------2x--4x--6x--6x-------------------------------|
E|--0~--2~--4~--5~------0x--2x--4x--5x-------------------------------|


   *BRIDGE
   *CHORUS X4

     END-ON

e|-------------------------------------------------------------------|
B|-------------------------------------------------------------------|
G|-------9~-9-9x-----------------------------------------------------|
D|--2~---------------------------------------------------------------|
A|--2~---------------------------------------------------------------|
E|--0~---------------------------------------------------------------|


| /  slide up
| \  slide down
| ~  vibrato
| x  Mute note
=====================================================================
Suggest correction
What's this?
You can suggest a correction to this tab. Community and Mods will review your correction and vote to approve or reject it.
comments
print report bad tab
12 comments total. Showing first comments.
0 reply
RiRaY 1,733 wrote on September 1 2004, 12:00 am

ummm... can you guys change the band name back to Hellogoodbye please? Its all one word.

0 reply
zondo317 23 wrote on August 14 2005, 12:00 am

i agree

0 reply
guitar_girl127 243 wrote on October 5 2005, 05:36 pm

amen

guest
You may want to rate the tab now too:
select rating
Please do not post tabs as comments. Select "correction" instead!