Oops, an error
Loading. Please wait.

Would It Kill You Chords

version 2
version 2

Whole song

6,215 views 15 this week
1 commentread comment
1 2 3 4 5
excellent!
x 6
add to favorites
launch autoscroll
font size
0
reset
transpose
0
reset
display chords
guitar tuner
Autoscroll
slow
fast
+/-
esc
set tempo
stop
Help us to improve Ultimate-Guitar.com Take our survey!
×
Author
Difficulty
AceMoney 630
novice
This song is mostly barre chords; I used the ~ symbol in places where the
chord should be held.  Also there is a short riff that appears a few times
in the song, which I've labeled E* and played like this:
E*:
e|--------------------------------------------------------|
B|--------------------------------------------------------|
G|---1111------------1111---------------------------------|
D|---2222------------2222---------------------------------|
A|---2222--2-4-2-----2222--2-4-2--------------------------|
E|-0-0000--------4-0-0000--------4------------------------|




Intro/Chorus:
E~         A~               B~              E~
  Would it kill you just to let it all work out?
A~             B~               E~
Tryin' so hard just to break it down.
  A~             B~              C#m~       B~
I somehow didn't see it till just now, till now.


E,E,E,E


Verse:
E
Spent that summer feelin' sorry
       A		   
Like I thought I'd never get.
E
To September, so I loved her
      A                 
And intend to wait for it.

    F#m         C#m     Abm   A           E*
Oh, things were shaping up to take a while.
F#m      C#m      Abm   A         E*
All that waiting, not a single smile.
F#m Abm         A       B
	Oh, and it's so hard.

Verse:
   E
To spend all winter,
                        A                    
Wantin' summer like you couldn't bear the cold.
E
Six months later,
                       A               
It's a bummer, like it instantly got old.

    F#m         C#m     Abm      A             E*
Oh, things were playing out just like I thought.
F#m      C#m      Abm   A             E*
No sense staying, bent over what's not.
F#m Abm         A       B
	Oh, is it so hard?

e|--------------------------------------------------------|
B|--9/12\9\7/9--------------------------------------------|
G|--------------------------------------------------------|
D|--------------------------------------------------------|
A|--------------------------------------------------------|
E|--------------------------------------------------------|

Chorus:
E          A                B               E
  Would it kill you just to let it all work out?
A              B                E
Tryin' so hard just to break it down.
  A              B               C#m        B
I somehow didn't see it till just now, till now.

(slightly different from the E*)
e|--------------------------------------------------------|
B|--------------------------------------------------------|
G|---1111-------------1111--------------------------------|
D|---2222-------------2222--------------------------------|
A|---2222-4-2-4-2-----2222-4-2-4-2------------------------|
E|-0-0000---------4-0-0000---------4----------------------|

E,E,E,E x2

Verse:
E
One day you knew,
                 A
You were letting every worthwhile breath.
     E
Just pass right through you,
                       A
With each one you drew nearer to death.

Bridge:
C#m  Abm F#m
I've got so much on my plate.
            C#m Abm    F#m           Abm     A     B
Sometimes I try not to let it bog me down, I know.
    F#m       Abm     A   B
Oh, everybody told me so,   whoa!

E          A                B               E
  Would it kill you just to let it all work out?
A              B                E
Tryin' so hard just to break it down.
  A              B               C#m        B
I somehow didn't see it till just now, till now.

E          A                B               E
  Would it kill you just to let it all work out?
A              B                E
Tryin' so hard just to break it down.
  A              B               C#m       B
I somehow didn't see it till just now, oh, no whoa!

Outro:
e|---0000-------------0000-----------|----0---0~--0~------|
B|---0000-------------0000-----------|----0---2~--0~------|
G|---1111-------------1111-----------|----1---2~--1~------|
D|---2222-------------2222-----------|x2--2---2~--2~------|
A|---2222-4-2-4-2-----2222-4-2-4-2---|----2---0~--2~------|
E|-0-0000---------4-0-0000---------4-|----0-------0~------|
Suggest correction new What's this?
You can suggest a correction to this tab. Community and Mods will review your correction and vote to approve or reject it.
comments
print report bad tab
1 comment total.
0 reply
alec45 75 wrote on January 9 2011, 06:43 pm

perfect i love you =]

guest
You may want to rate the tab now too:
select rating
Please do not post tabs as comments. Select "correction" instead!