Oops, an error
Loading. Please wait.

Before The War Tab

version 1
version 1

Whole song

Interactive

Video

2,172 views 1 this week
no commentswrite comment
1 2 3 4 5
3 more votes to show rating
add to favorites
launch autoscroll
font size
0
reset
how to read this tab
guitar tuner
Autoscroll
slow
fast
+/-
esc
set tempo
stop
When vocals starts (really fast):

INTRO

Come take a look up to the constellations...

Take the book of God you will find your relations...
E|---------------------------------------------------------------------------|
B|---------------------------------------------------------------------------|
G|---------------------------------------------------------------------------|
D|---------------------------------------------------------------------------|
A|-1-1-1-1-1-1-1-1-1-1-1-1-1-1-1-1-1-1-1-1-1-1-1-1-1-1-1-1-1-1-1-1-1-1-1-1-1-|
E|---------------------------------------------------------------------------|

And stay like this at the first 4 verses

BRIDGE

Also really fast

I'm a son of a distant future...
E|---------------------------------------------------------------------------|
B|---------------------------------------------------------------------------|
G|---------------------------------------------------------------------------|
D|---------------------------------------------------------------------------|
A|-0-1-1-1-1-1-1-1-1-1-1-1-1-1-1-1-1-1-1-1-1-1-1-1-1-1-1-1-1-1-1-1-1-1-1-1-1-|
E|---------------------------------------------------------------------------|

I'm the last of the seven troopers...
E|--------------------------------------------------------------------------|
B|--------------------------------------------------------------------------|
G|--------------------------------------------------------------------------|
D|--------------------------------------------------------------------------|
A|-5-5-5-5-5-5-5-5-5-5-5-5-5-5-5-5-5-5-5-5-5-5-5-5-5-5-5-5-5-5-5-5-5-5-5-5--|
E|--------------------------------------------------------------------------|

And I came here for the 7th war
E|--------------------------------------------------------------------------|
B|--------------------------------------------------------------------------|
G|--------------------------------------------------------------------------|
D|--------------------------------------------------------------------------|
A|-1-1-1-1-1-1-1-1-1-1-1-1-1-1-1-1-1-1-5-5-5-5-5-5-5-5-5-5-5-5-5-5-5-5-5-5--|
E|--------------------------------------------------------------------------|

E|--------------------------------------------------------------------------|
B|--------------------------------------------------------------------------|
G|---7-7-7-7----------------------------------------------------------------|
D|---7-7-7-7----------------------------------------------------------------|
A|---5-5-5-5----------------------------------------------------------------|
E|--------------------------------------------------------------------------|

Chorus:
the same as BRIDGE

Riff before solo:
E|---------------------------------------------------------------------------|
B|---------------------------------------------------------------------------|
G|------------------------------------------------4-5-6--2h4p2h4p2h4p2h2p2h4-|
D|------------------------------------------2-3-4----------------------------|
A|------------------------------------2-3-4----------------------------------|
E|---2222--2-0-2222--2-0-3-2222--2-5-----------------------------------------|


Lyrics:
Come take a look up to the constellations
Take the book of God you will find your relations
If you understand you will know the solution
Things will fall back to the new constitution

I'm a son of a distant future
I'm the last of the seven troopers
And I came here for the 7th war

I'm a child of the stars
The blaster of the gods
And I have seen it all before
Before the war
Cold-hearted earth
I'm the master of the universe
And I have seen it all before
Before the war

Nature sets a limit on your millenary
Turning every place into a cruel mean scenary
All will get a chance to shun the holy file
But you will be few getting under the wire

I'm a son of a distant future
I'm the last of the seven troopers
And I came here for the 7th war

I'm a child of the stars
The blaster of the gods
And I have seen it all before
Before the war
Cold-hearted earth
I'm the master of the universe
And I have seen it all before
Before the war
Mind the seventh war - mind the seventh war
Yes I came here for the seventh war
Suggest correction
Give kudos to tab author, rate the tab!
1 2 3 4 5
comments
print report bad tab
guest
Wanna post a correction for this tab? Suggest correction