Oops, an error
Loading. Please wait.

Future World bass

version 3
version 3

Whole song

Interactive

19 views 1 this week
no commentswrite comment
1 2 3 4 5
3 more votes to show rating
add to favorites
×
Save as Personal and add changes to this tab that will be seen only by you. Learn more ›
×
You can save this tab as Personal to edit and correct it or add notes. All changes will be seen only by you. Learn more »
launch autoscroll
font size
0
reset
guitar tuner
backing track
0:00
0:00
edit
Autoscroll
slow
fast
+/-
esc
set tempo
stop
[Intro]

G|--------------|--------------|--------------|--------------|
D|--------------|--5---5---5---|--------------|--------------|
A|--7---7---7---|--------------|--5---5---5---|--7---7---7---|
E|--------------|--------------|--------------|--------------|

G|--------------|--------------|--------------|--------------|
D|--------------|--------------|--------5-5-5-|-5-5-5--5-5-5-|
A|-5-5-5--7-7-7-|-7-7-7--7-7-7-|-7-7-7--------|--------------|
E|--------------|--------------|--------------|--------------|
                            
G|--------------|--------------|--------------|--------------|
D|-5-5-5--------|--------------|--------------|--------------|
A|--------5-5-5-|-5-5-5--5-5-5-|-5-5-5--7-7-7-|-7-7-7--7-7-7-|
E|--------------|--------------|--------------|--------------|

G|--------------|--------------|--------------|--------------|
D|--------------|--------------|--------------|--------------|
A|-7-5-5-5------|--------------|--------------|--------------|
E|--------------|--------------|--------------|--------------|


[Verse 1]

G|--------------|
D|--------------|
A|--------5-5-5-|
E|--------------|

G|--------------|--------------|--------------|--------------|
D|--------------|--------------|--------------|--------------|
A|-7--7--7-7-7--|-7--7--7-7-7--|--------------|-7--7--7-7-7--|
E|--------------|--------------|-8--8--8-8-8--|--------------|

G|--------------|--------------|
D|--------------|--------------|
A|--------------|-7--7--7-7-7--|
E|-8--8--8-8-8--|--------------|

G|--------------|--------------|--------------|
D|--------------|--------------|--------------|
A|-10--10--9--9-|-7--7--7-7-7--|-7--7--7-7-7--|
E|--------------|--------------|--------------|

G|----------------|----------------|---------------|----------------|
D|-5-5-5-5-5-5-5-5|----------------|5-5-5-5-5-5-5-5|----------------|
A|----------------|-5-5-5-5-5-5-5-5|---------------|-5-5-5-5-5-5-5-5|
E|----------------|----------------|---------------|----------------|

G|----------------|----------------|--------------|--------------|
D|-5-5-5-5-5-5-5-5|----------------|--------------|--------------|
A|----------------|-5-5-5-5-5-5-5-5|--------------|--------------|
E|----------------|----------------|-5--5--5-5-5-5|--3--2--0-----|

G|----------------|----------------|---------------|----------------|
D|-5-5-5-5-5-5-5-5|----------------|5-5-5-5-5-5-5-5|----------------|
A|----------------|-5-5-5-5-5-5-5-5|---------------|-5-5-5-5-5-5-5-5|
E|----------------|----------------|---------------|----------------|

G|----------------|----------------|----------------|
D|-5-5-5-5-5-5-5-5|----------------|----------------|
A|----------------|-4-4-4-4-4-4-4-4|-5-5-5-5-5-5-5-5|
E|----------------|----------------|----------------|


[Chorus 1]

G|--------------|--------------|--------------|--------------|
D|--------------|--------------|--------------|--------------|
A|-7--7--7-7-7--|-7--7--7-7-7--|-3--3--5-5-5--|-7--7--7-7-7--|
E|--------------|--------------|--------------|--------------|

G|--------------|--------------|----------------|--------------|
D|--------------|--------------|----------------|--------------|
A|-3--3--3-3-3--|-0--0--0-0-0--|-2--2--2-2-2-2-2|-3-2-0-------2|
E|--------------|--------------|----------------|-------3-2-3--|

G|--------------|--------------|--------------|--------------|
D|--------------|--------------|--------------|--------------|
A|-7--7--7-7-7--|-7--7--7-7-7--|-3--3--5-5-5--|-7--7--7-7-7--|
E|--------------|--------------|--------------|--------------|

G|---------------|--------------|
D|---------------|--7-9---------|
A|-3--3--3-3-3--2|------7-9-7-5-|
E|---------------|--------------|


[Verse 2]

G|--------------|--------------|--------------|--------------|
D|--------------|--------------|-5-5-5--5-5-5-|-5-5-5--5-5-5-|
A|-7-7-7--7-7-7-|-7-7-7--7-7-7-|--------------|--------------|
E|--------------|--------------|--------------|--------------|

G|--------------|--------------|--------------|---------------|
D|--------------|--------------|--------------|---------------|
A|-5-5-5--5-5-5-|-5-5-5--5-5-5-|-7-7-7--7-7-7-|-7-7-7--7-5-5-5|
E|--------------|--------------|--------------|---------------|

G|--------------|--------------|
D|--------------|--------------|
A|-7--7--7-7-7--|-7--7--7-7-7--|
E|--------------|--------------|

G|--------------|--------------|--------------|--------------|
D|--------------|--------------|--------------|--------------|
A|--------------|-7--7--7-7-7--|--------------|-7--7--7-7-7--|
E|-8--8--8-8-8--|--------------|-8--8--8-8-8--|--------------|

G|--------------|--------------|--------------|--------------|
D|--------------|--------------|--------------|--------------|
A|-10--10--9--9-|-7--7--7-7-7--|-7--7--7-7-7--|-7--7--7-7-7--|
E|--------------|--------------|--------------|--------------|

G|--------------|--------------|--------------|--------------|
D|--------------|--------------|--------------|--------------|
A|--------------|-7--7--7-7-7--|--------------|-7--7--7-7-7--|
E|-8--8--8-8-8--|--------------|-8--8--8-8-8--|--------------|

G|--------------|--------------|--------------|
D|--------------|--------------|--------------|
A|-10--10--9--9-|-7--7--7-7-7--|-7--7--7-7-7--|
E|--------------|--------------|--------------|


[Verse 3]

G|----------------|----------------|---------------|----------------|
D|-5-5-5-5-5-5-5-5|----------------|5-5-5-5-5-5-5-5|----------------|
A|----------------|-5-5-5-5-5-5-5-5|---------------|-5-5-5-5-5-5-5-5|
E|----------------|----------------|---------------|----------------|

G|----------------|----------------|--------------|--------------|
D|-5-5-5-5-5-5-5-5|----------------|--------------|--------------|
A|----------------|-5-5-5-5-5-5-5-5|--------------|--------------|
E|----------------|----------------|-5--5--5-5-5-5|--3--2--0-----|

G|----------------|----------------|---------------|----------------|
D|-5-5-5-5-5-5-5-5|----------------|5-5-5-5-5-5-5-5|----------------|
A|----------------|-5-5-5-5-5-5-5-5|---------------|-5-5-5-5-5-5-5-5|
E|----------------|----------------|---------------|----------------|

G|----------------|----------------|----------------|
D|-5-5-5-5-5-5-5-5|----------------|----------------|
A|----------------|-4-4-4-4-4-4-4-4|-5-5-5-5-5-5-5-5|
E|----------------|----------------|----------------|


[Chorus 2]

G|--------------|--------------|--------------|--------------|
D|--------------|--------------|--------------|--------------|
A|-7--7--7-7-7--|-7--7--7-7-7--|-3--3--5-5-5--|-7--7--7-7-7--|
E|--------------|--------------|--------------|--------------|

G|--------------|--------------|----------------|--------------|
D|--------------|--------------|----------------|--------------|
A|-3--3--3-3-3--|-0--0--0-0-0--|-2--2--2-2-2-2-2|-3-2-0-------2|
E|--------------|--------------|----------------|-------3-2-3--|

G|--------------|--------------|--------------|--------------|
D|--------------|--------------|--------------|--------------|
A|-7--7--7-7-7--|-7--7--7-7-7--|-3--3--5-5-5--|-7--7--7-7-7--|
E|--------------|--------------|--------------|--------------|

G|---------------|--------------|
D|---------------|--7-9---------|
A|-3--3--3-3-3--2|------7-9-7-5-|
E|---------------|--------------|


[Solo]

G|----------------|----------------|----------------|----------------|
D|----------------|----------------|----------------|----------------|
A|-7-7-7-7-7-7-7-7|-7-7-7-7-7-7-7-7|-7-7-7-7-7-7-7-7|-7-7-7-7-7-7-7-7|
E|----------------|----------------|----------------|----------------|

G|----------------|----------------|----------------|----------------|
D|----------------|-7-9------------|----------------|----------------|
A|----------------|-----7-9-5-7-4--|----------------|---------5-7-9--|
E|---7------------|----------------|---7------------|-0-2-5-7--------|

G|----------------|----------------|----------------|----------------|
D|----------------|-7-9------------|----------------|----------------|
A|----------------|-----7-9-5-7-4--|-7-7-7-7-7-7-7-7|-7-7-7-7-7-7-7-7|
E|---7---7--------|----------------|----------------|----------------|

G|----------------|----------------|----------------|----------------|
D|----------------|----------------|----------------|----------------|
A|-7---7---7---7--|----------------|-7--9--10--9--7-|----------------|
E|----------------|-7---7---7---7--|----------------|-7---7---7---7--|

G|--------------|--------------|----------------|--------------|
D|--------------|--------------|----------------|--------------|
A|-3--3--3-3-3--|-0--0--0-0-0--|-2--2--2-2-2-2-2|-3-2-0--------|
E|--------------|--------------|----------------|-------3-2-3-5|

G|----------------|----------------|----------------|----------------|
D|----------------|----------------|----------------|----------------|
A|-7-7-7-7--------|-7--9--10--9--7-|----------------|-3-3-3-3-5-5-5-5|
E|---------7-7-7-7|----------------|-7---7---7---7--|----------------|

G|----------------|--------------|--------------|--------------|--------------|
D|----------------|--------------|--------------|--------------|--------------|
A|---------5-5-5-5|-7--7--7-7-7--|-7--7--7-7-7--|-3--3--5-5-5--|-7--7--7---7--|
E|-0-0-0-0--------|--------------|--------------|--------------|--------------|

G|----------------|----------------|----------------|----------------|
D|----------------|----------------|----------------|----------------|
A|-7--7--7--7-7-7-|--7-7-7--7--7---|-3---3--5---5---|-7---7---7---7--|
E|----------------|----------------|----------------|----------------|

G|----------------|----------------|----------------|------7-7-7-7-7-7|
D|-----------2-4--|-----------2-4--|----------------|-----------------|
A|------2-5-------|------2-5-------|----------------|-5---5-----------|
E|-3--5-----------|-3--5-----------|-3-3-3-3-5-5-5-5|-----------------|


[Chorus 3]

G|--------------|--------------|--------------|--------------|
D|--------------|--------------|--------------|--------------|
A|-7--7--7-7-7--|-7--7--7-7-7--|-3--3--5-5-5--|-7--7--7-7-7--|
E|--------------|--------------|--------------|--------------|

G|--------------|--------------|----------------|--------------|
D|--------------|--------------|----------------|--------------|
A|-3--3--3-3-3--|-0--0--0-0-0--|-2--2--2-2-2-2-2|-3-2-0-------2|
E|--------------|--------------|----------------|-------3-2-3--|

G|--------------|--------------|--------------|--------------|
D|--------------|--------------|--------------|--------------|
A|-7--7--7-7-7--|-7--7--7-7-7--|-3--3--5-5-5--|-7--7--7-7-7--|
E|--------------|--------------|--------------|--------------|

G|---------------|----7-7-7-7-7-7|
D|---------------|---------------|
A|-3--3--3-3-3--2|---------------|
E|---------------|---------------|

G|---------------|---------------|---------------|---------------|
D|---------------|-7-9---7-------|---------------|---------------|
A|-3--3--3-3-3--2|-----9---9-7-5-|-3--3--3-3-3--2|---5-----5-----|
E|---------------|---------------|---------------|---------------|

G|---------------|---------------|---------------|---------------|
D|---------------|---------------|---------------|---------------|
A|-7--7--7--7-7-7|-7-7-5---5---5-|-7--7--7--7-7-7|-7-7-5---5---5-|
E|---------------|---------------|---------------|---------------|

G|---------------|---------------|---------------|---------------|
D|---------------|---------------|---------------|---------------|
A|-7--7--7--7-7-7|-7-7-5---5---5-|-7~------------|---------------|
E|---------------|---------------|---------------|---------------|


***********************************

~ Vibrato

***********************************

            
            
Suggest correction
Creating personal tab
Creating personal tab
You can edit any tab online and save it as your Personal.

You can edit, replace or remove any tab part or add personal notes – all changes will be seen only by you.

Personal tabs can be accessed anytime from any device, even offline.
Learn more »
Give kudos to tab author, rate the tab!
1 2 3 4 5
comments
print report bad tab
guest
You may want to rate the tab now too:
select rating
Wanna post a correction for this tab? Suggest correction