Oops, an error
Loading. Please wait.

Future World tab

version 3
version 3

Whole song

Interactive

7,780 views 3 this week
no commentswrite comment
1 2 3 4 5
2 more votes to show rating
add to favorites
×
Save as Personal and add changes to this tab that will be seen only by you. Learn more ›
×
You can save this tab as Personal to edit and correct it or add notes. All changes will be seen only by you. Learn more »
launch autoscroll
font size
0
reset
how to read this tab
guitar tuner
backing track
0:00
0:00
edit
Autoscroll
slow
fast
+/-
esc
set tempo
stop
Author
Difficulty
Band:  Helloween
Album: Keeper of the Seven Keys Pt 1
Song:  Future World

Copyright (c)  (Noise) (1987)
Version 1.0 - (08/06/06)



.  - palm mute           /  - slide up to
\  - slide down to       ~  - vibrato
h  - hammer on           b  - Bend
p  - pull off            Suffixes for bend
t  - tap                 f  - full bend    h - half bend
ph - pinched harmonic    q  - quarter bend t - tap bend
                         p  - pre bend
*  - see comment         ^  - Hold bend    r release bend
x  - Stuccatto           ~  - vibrato bend
,  - slight palm mute    () - ghost note, sustained note
"  - tremolo note        <> - harmonic

Tuning E A D G B E

 Intro

 Riff A
 [---------------PM----------------]
|-----------------------------------|
|-----------------------------------|
|-------------------------9-7-------|
|---9-7-9---9-7-9---9-7-9-----9-7-9-|
|-7-------7-------7-----------------| Rpt
|-----------------------------------|

 Main Riff

 Guitar 2(Guitar plays Riff A)
|-------------------------------------------------------------------|
|-------------------------------------------------------------------|
|-9------------(9)----------------/12---------------(12)------------|
|-9------------(9)----------------/12---------------(12)------------|
|-7------------(7)----------------/10---------------(10)------------|
|-------------------------------------------------------------------|

|-------------------------------------------------------------------|
|-------------------------------------------------------------------|
|-7------------(7)---------------\-9------------(9)-----------7-7-7-|
|-7------------(7)---------------\-9------------(9)-----------7-7-7-|
|-5------------(5)---------------\-7------------(7)-----------5-5-5-|
|-------------------------------------------------------------------|

 Rpt

 Verse

 [------------------------------PM---------------------------------] 
|-------------------------------------------------------------------|
|-------------------------------------------------------------------|
|-------------------------------------------------------------------|
|-9-9-9-9-9-9-9-9-9-9-9-9-9-9-9-9-5-5-5-5-5-5-5-5-5-9-9-9-9-9-9-9-9-|
|-7-7-7-7-7-7-7-7-7-7-7-7-7-7-7-7-3-3-3-3-3-3-3-3-3-7-7-7-7-7-7-7-7-|
|-------------------------------------------------------------------|

 [---------------PM----------------]
|------------------------------------------------|
|---------------------------------------1-----0--|
|-------------------------------------------0----|
|-5-5-5-5-5-5-5-5-5-9-9-9-9-9-9-9-9---2----------|
|-3-3-3-3-3-3-3-3-3-7-7-7-7-7-7-7-7-3-----2------|
|------------------------------------------------|

 [---PM--]
|---------------|
|---------------|
|---------7-7-7-|
|-9-9-9-9-7-7-7-|
|-7-7-7-7-5-5-5-|
|---------------|


  Guitar 1
 [--------------------------PM------------------------------]
[--------------------------------------------------------------------|
[--------------------------------------------------------------------|
[-9--9-9-9--9--9-9-9--5--5-5-5-/9--9-9-9--5--5-5-5-/9--9-9-9---------|
[-9--9-9-9--9--9-9-9--5--5-5-5-/9--9-9-9--5--5-5-5-/9--9-9-9--5--4---|
[-7--7-7-7--7--7-7-7--3--3-3-3-/7--7-7-7--3--3-3-3-/7--7-7-7--3--2---|
[--------------------------------------------------------------------|
[Guitar 2
[[--------------------------PM------------------------------]
[--------------------------------------------------------------------|
[---------------------------------------------------------------1--0-|
[-9--9-9-9--9--9-9-9--5--5-5-5-/9--9-9-9--5--5-5-5-/9--9-9-9------0--|
[-9--9-9-9--9--9-9-9--5--5-5-5-/9--9-9-9--5--5-5-5-/9--9-9-9---2-----|
[-7--7-7-7--7--7-7-7--3--3-3-3-/7--7-7-7--3--3-3-3-/7--7-7-7--3--2---|
[--------------------------------------------------------------------|

|--------------------|
|--------------------|
|-9--9-9-9--9--9-9-9-|
|-9--9-9-9--9--9-9-9-|
|-7--7-7-7--7--7-7-7-|
|--------------------|

 Bridge

 [--------------PM---------------]
|---------------------------------|
|---------------------------------|
|---------------------7-------7---|
|-----5-------5---------7-------7-|
|-5-5---5-5-5---5-5-5-----5-5-----|
|-3-3-----3-3---------------------| Rpt 3 X

     [PM]  PM
|-----------------------|
|-----------------------|
|-----------------------|
|-2------2---2-2--------|
|-0--0-0-0-0-0-0--------|
|----------------3-2-0--|

 [--------------PM---------------]
|---------------------------------|
|---------------------------------|
|---------------------7-------7---|
|-----5-------5---------7-------7-|
|-5-5---5-5-5---5-5-5-----5-5-----|
|-3-3-----3-3---------------------| Rpt 2 X

 [--------------PM---------------]   [--PM--]
|-------------------------------------------------|
|-------------------------------------------------|
|---------------------9-------9---7----------7-\--|
|-----------------------9-------9-7--7-7-7-7-7-\--|
|-5-5-5-5-5-5-5-5-7-7-----7-7-----5--5-5-5-5-5-\--|
|-3-3-3-3-3-3-3-3---------------------------------| Rpt 3 X

 Chorus

|--------------------------------------------------------|
|--------------------------------------------------------|
|-9--------(9)--------5---/7----9----(9)----5----(5)-----|
|-9--------(9)--------5---/7----9----(9)----5----(5)-----|
|-7--------(7)--------3---/5----7----(7)----3----(3)-----|
|--------------------------------------------------------|

                 [----PM----]
|-----------------------------|
|-----------------------------|
|-2----(2)----4---------------|
|-2----(2)----4--4-4-4-4-4-4--|
|-0----(0)----2--2-2-2-2-2-2--|
|-----------------------------|

|----------------------------------------------------------|
|----------------------------------------------------------|
|-9--------(9)--------5---/7----9----(9)----5----(5)----4\-|
|-9--------(9)--------5---/7----9----(9)----5----(5)----4\-|
|-7--------(7)--------3---/5----7----(7)----3----(3)----2\-|
|----------------------------------------------------------|

 Rpt Main Riff

 2nd Verse

|-------------------------------------------------------------------|
|-------------------------------------------------------------------|
|-------------------------------------------------------------------|
|---------------5---(5)--/9---(9)--\5---(5)--/9---(9)---5\4---------|
|-7-----(7)----\3---(3)--/7---(7)--\3---(3)--/7---(7)---3\2-7-7-7-7-|
|-0-----(0)-------------------------------------------------0-------|

 Rpt 2nd half of 1st Verse
 Rpt Bridge
 Rpt Chorus

 Mid 8

 [-----------------------------PM--------------------------------]
|-----------------------------------------------------------------|
|-----------------------------------------------------------------|
|---------------------------------4-4-4-4-4-4-4-4-4-4-4-4-4-4-----|
|-5-5-5-5-5-5-5-5-5-5-5-5-5-5-5---5-5-5-5-5-5-5-5-5-5-5-5-5-5-555-|
|-7-7-7-7-7-7-7-7-7-7-7-7-7-7-777---------------------------------|
|-----------------------------------------------------------------|

|-----------------------------------|
|-----------------------------------|
|-----------------------------------|
|-4--4--4-4------4-------4--4--4-4--|
|-2--2--2-2------2-------2--2--2-2--|
|-----------------------------------|

 Guitar solo

  Guitar 1
  [--------------PM---------------]                      ~~~~~~~
[-----------------------------7--8--10---------------------------|
[-----------------7--8--10/12----------15fb-15fb-r12-15p---------|
[-----4-5-4-5-7/9---------------------------------------12-------|
[-5-7------------------------------------------------------------|
[----------------------------------------------------------------|
[----------------------------------------------------------------|
[ Guitar 2
[[--------------PM---------------]                        ~~~~~~~~
[--------------------------10-12-14-15-17fb-17fb-r15-17p---------|
[-------------7-8-10/12-13------------------------------15-------|
[---------7-9----------------------------------------------------|
[-----5-7--------------------------------------------------------|
[-3-5------------------------------------------------------------|
[----------------------------------------------------------------|

 Guitar 1
                  ~~~~~~~~
[-17fb-17fb-rp15-17----------15----14----12----10----8-----7-----5----|
[-------------------------15----17----15----13----12----10----8----7--|
[---------------------------------------------------------------------|
[---------------------------------------------------------------------|
[---------------------------------------------------------------------|
[---------------------------------------------------------------------|
[Guitar 2
[                 ~~~~~~~~~~
[----------------------------19----17----15----14----12----10----8----|
[-15fb-15fb-rp12-15-------------20----19----17----15----13----12---10-|
[---------------------------------------------------------------------|
[---------------------------------------------------------------------|
[---------------------------------------------------------------------|
[---------------------------------------------------------------------|


 Guitar 1
[-3----------7--8--10-12-14-15p14-br12--17fb-17fb-rp15-17-fb--|
[---5-7-8-10--------------------------------------------------|
[-------------------------------------------------------------|
[-------------------------------------------------------------|
[-------------------------------------------------------------|
[-------------------------------------------------------------|
[Guitar 2
[-7---5-7-8--10-12-14-15-17p15-17fb-r15-15fb-15fb-rp13-15-fb--|
[---9---------------------------------------------------------|
[-------------------------------------------------------------|
[-------------------------------------------------------------|
[-------------------------------------------------------------|
[-------------------------------------------------------------|


 Guitar 1
             ~~~~~~
[-22b-22fb-r19-----22p21p20-20p19p17-17p15p14p12-14p12p10-12p10p8p--|
[-------------------------------------------------------------------|
[-------------------------------------------------------------------|
[-------------------------------------------------------------------|
[-------------------------------------------------------------------|
[-------------------------------------------------------------------|
[Guitar 2
[            ~~~~~~
[-17b-17fb-r15-----19p17p15-17-15-14-14-12--------------------------|
[------------------------------------------15p13-15p13p12-13p12p10--|
[-------------------------------------------------------------------|
[-------------------------------------------------------------------|
[-------------------------------------------------------------------|
[-------------------------------------------------------------------|

 Guitar 1
               h  h     h  h      h  h     h  h    ~~~~   
[-10p8--7p5----------7--8--10-12-14-15-15-17-19-12fb---\--|
[-----------7--8--10--------------------------------------|
[---------------------------------------------------------|
[---------------------------------------------------------|
[---------------------------------------------------------|
[---------------------------------------------------------|
[Guitar 2
[              h  h      h  h    h  h               ~~~
[--------------------10-12-14-15-17-19-22-20-15-17fb---\--|
[-12p10p9p7-10-12-13--------------------------------------|
[---------------------------------------------------------|
[---------------------------------------------------------|
[---------------------------------------------------------|
[---------------------------------------------------------|

 Guitar 1
                                       ~~~~
[---------------------------------------------14fb-14b-fb-r---|
[-14b-r14p12-14b-r14p12-14b14b--14p12-14b------------------15-|
[-------------------------------------------------------------|
[-------------------------------------------------------------|
[-------------------------------------------------------------|
[-------------------------------------------------------------|
[Guitar 2
[                                      ~~~~
[-------------------------------------------------------------|
[-10b-r10-8--10b-r10-8--10b10b-r10-8--10b-----14fb-14b-fb-r12-|
[-------------------------------------------------------------|
[-------------------------------------------------------------|
[-------------------------------------------------------------|
[-------------------------------------------------------------| Rpt

 

   t    h      t     h     t     t     t     t           t
|-19p14-15p14-19p14-15p14-19p15-20p15-19p15-19p17p15p14-19p17p15p14-|
|-------------------------------------------------------------------|
|-------------------------------------------------------------------|
|-------------------------------------------------------------------|
|-------------------------------------------------------------------|
|-------------------------------------------------------------------|

   t     t     t     t          t        t         t     t     t
|-19p15-20p15-19p15-17p15p14----17p15p14-17p15p14-19p15-19p15-20p15-|
|----------------------------15-------------------------------------|
|-------------------------------------------------------------------|
|-------------------------------------------------------------------|
|-------------------------------------------------------------------|
|-------------------------------------------------------------------|


|-17p15p14----17p15p14----19-19fb-19-|
|----------15----------15------------|
|------------------------------------|
|------------------------------------|
|------------------------------------|
|------------------------------------|

 Guitar 1
  [--------PM-----------]
[-------------------------------------------------|
[-------------7-8---------------------------------|
[-----4-5-7/9-------4-6-7/9-7-9-------------------|
[-5-7-------------7-------------------------------|
[-------------------------------------------------|
[-------------------------------------------------|
[Guitar 2
[[--------PM-----------]
[-------------------------------------------------|
[-----------------------7-8-7-8-------------------|
[---------4-5-7-9-6-7-9---------------------------|
[-4-5-7-9-----------------------------------------|
[-------------------------------------------------|
[-------------------------------------------------|
[Guitar 3                          ~~~~~~~~~~~~~~~
[-------------------------------------------------|
[-----------------------------8-10-7--------------|
[-------------------------------------------------|
[-------------------------------------------------|
[-------------------------------------------------|
[-------------------------------------------------|
[Guitar 4                           ~~~~~~~~~~~~~~
[-------------------------------------------------|
[-----------------------------5-7-----------------|
[----------------------------------7--------------|
[-------------------------------------------------|
[-------------------------------------------------|
[-------------------------------------------------|


 With flanger
|-----------------|
|-----------------|
|-----------------|
|-----------------|
|-7-7-7-7-7-7-7-7-|
|-----------------|

 Backing for solo

|-------------------------------------------------------------------|
|-------------------------------------------------------------------|
|-------------------------------------------------------------------|
|-9------------(9)-------------\4---------------(4)---------------/-|
|-7------------(7)-------------\2---------------(2)---------------/-|
|-------------------------------------------------------------------| Rpt

|-------------------------------------------------------------------|
|-------------------------------------------------------------------|
|-------------------------------------------------------------------|
|-5----(5)----/7-------(7)-----\4---------------(4)-----------------|
|-3----(3)----/5-------(5)-----\2---------------(2)-----------------|
|-------------------------------------------------------------------|


|-------------------------------------------------------------------|
|-------------------------------------------------------------------|
|-------------------------------------------------------------------|
|-9------------(9)-------------\4---------------(4)---------------/-|
|-7------------(7)-------------\2---------------(2)---------------/-|
|-------------------------------------------------------------------| Rpt


|-------------------------------------------------------------------|
|-------------------------------------------------------------------|
|-------------------------------------------------------------------|
|-5----(5)----/7-------(7)-----------------------------7-----(7)----|
|-3----(3)----/5-------(5)------2---------(2)----------5-----(5)----|
|-------------------------------0---------(0)-----------------------|


|-------------------------------------------------------------------|
|-------------------------------------------------------------------|
|-------------------------------------------------------------------|
|-9-----(9)----5----(5)-----7------(7)------9---------(9)-----------|
|-7-----(7)----3----(3)-----5------(5)------7---------(7)-----------|
|-------------------------------------------------------------------| Rpt

 Backing under tapping section

|----------------------|
|----------------------|
|----------------------|
|---------------2--4---|
|---------2--5---------|
|-3----5---------------| Rpt


 With flanger
|-----------------|
|-----------------|
|-----------------|
|-----------------|
|-7-7-7-7-7-7-7-7-|
|-----------------|

 Rpt Chorus
                   pick scrape
|----------------------------|
|----------------------------|
|----------------------------|
|-5----(5)----4---\-\-\-\-\--|
|-3----(3)----2----\-\-\-\-\-|
|----------------------------|

|----------------------------|
|----------------------------|
|----------------------------|
|-5----(5)----4--------------|
|-3----(3)----2--------------|
|----------------------------| Rpt

|----------------------------|
|----------------------------|
|-7-7-9---------(9)----------|
|-7-7-9---------(9)----------|
|-5-5-7---------(7)----------|
|-----0---------(0)----------| Rpt 3 X

|---------|
|---------|
|-7-7-9---|
|-7-7-9---|
|-5-5-7---|
|-----0---|




END


            
            
Suggest correction
Creating personal tab
Creating personal tab
You can edit any tab online and save it as your Personal.

You can edit, replace or remove any tab part or add personal notes – all changes will be seen only by you.

Personal tabs can be accessed anytime from any device, even offline.
Learn more »
Give kudos to tab author, rate the tab!
1 2 3 4 5
comments
print report bad tab
guest
You may want to rate the tab now too:
select rating
Wanna post a correction for this tab? Suggest correction