Oops, an error
Loading. Please wait.
We have an official I Want Out tab made by UG professional guitarists. Check out the tab »
×
46,943 views 72 this week
1 commentread comment
1 2 3 4 5
x 4
add to favorites
×
Save as Personal and add changes to this tab that will be seen only by you. Learn more ›
×
You can save this tab as Personal to edit and correct it or add notes. All changes will be seen only by you. Learn more »
launch autoscroll
font size
0
reset
how to read this tab
guitar tuner
backing track
0:00
0:00
edit
Autoscroll
slow
fast
+/-
esc
set tempo
stop
Author
Difficulty
intermediate
+-----------------------------------------+
|                                         |
| Song: I Want Out                        |
| Artist: Helloween                       |
| Album: Keeper Of The Seven Keys Part II |
|                                         |
|+-----------------------------------------+
|                                         |
| Standard Tunning (E A D G B e)          |
|                                         |
+-----------------------------------------+
|                                         |
| / - slide to the left side              |
| \ - slide to the right side             |
| h - hammer on                           |
| p - pull off                            |
| tr - play tremolo                       |
| t - play tremolo with slide             |
| . - palm mutted                         |
|                                         |
+-----------------------------------------+

[Intro 1]
e|----------------------------------------------------------------------------------|
B|----------------------------------------------------------------------15^---------|
G|---17----17----17----17----15-17--------17----17----17----17----15-17-----17-15---|
D|------15----15----15----15-------18-18^----15----15----15----15-------------------|
A|----------------------------------------------------------------------------------|
E|----------------------------------------------------------------------------------|

e|----------------------------------------------------------------------------------|
B|----------------------------------------------------------------------15^---------|
G|---17----17----17----17----15-17--------17----17----17----17----15-17-----17-15---|
D|------15----15----15----15-------18-18^----15----15----15----15-------------------|
A|----------------------------------------------------------------------------------|
E|----------------------------------------------------------------------------------|

e|----------------------------------------------------------------------------------|
B|----------------------------------------------------------------------15^---------|
G|---17----17----17----17----15-17--------17----17----17----17----15-17-----17-15---|
D|------15----15----15----15-------18-18^----15----15----15----15-------------------|
A|----------------------------------------------------------------------------------|
E|----------------------------------------------------------------------------------|

e|----------------------------------------------------------------------------------|
B|----------------------------------------------------------------------15^---------|
G|---17----17----17----17----15-17--------17----17----17----17----15-17-----17-15---|
D|------15----15----15----15-------18-18^----15----15----15----15-------------------|
A|----------------------------------------------------------------------------------|
E|----------------------------------------------------------------------------------|

e|-------------------------|
B|-------------------18^---|
G|-----------17--19--------|
D|---15--18----------------|
A|-------------------------|
E|-------------------------|

[Verse 1]
e|---------------------------------------------------------------------|
B|---------------------------------------------------------------------|
G|---------------------------------------------------------------------|
D|---12-10-9-5\7------------------12-10-9-5\7------------------7-7-5---|
A|---10-8--7-3\5------1---3---5---10-8--7-3\5------1---3---5---5-5-3---|
E|---------------------------------------------------------------------|

e|--------------------------------------|
B|--------------------------------------|
G|----------------------------------5---|
D|--------------------------------------|
A|---5---\8---7-7-7-7-7-7-7-7-7---7-----|
E|---3---\6---5-5-5-5-5-5-5-5-5---5-----|
              . . . . . . .

[Chorus]
e|-------------------------------------------------------------------|
B|-------------------------------------------------------------------|
G|-------------------------------------------------------------------|
D|---7---3---5-5-5-5-5-5-7---1---5-5-5-5-5-5-7---3---5-5-5-5-5-5-7---|
A|---5---1---3-3-3-3-3-3-5---3---3-3-3-3-3-3-5---1---3-3-3-3-3-3-5---|
E|-------------------------------------------------------------------|
           . .   . .           . .   . .           . .   . .

e|-------------------|
B|-------------------|
G|-------------------|
D|---3---5-5-5-5-5---|
A|---1---3-3-3-3-3---|
E|-------------------|
         . . .

[Intro 2]
e|----------------------------------------------------------------------------------|
B|----------------------------------------------------------------------15^---------|
G|---17----17----17----17----15-17--------17----17----17----17----15-17-----17-15---|
D|------15----15----15----15-------18-18^----15----15----15----15-------------------|
A|----------------------------------------------------------------------------------|
E|----------------------------------------------------------------------------------|

e|----------------------------------------------------------------------------------|
B|----------------------------------------------------------------------15^---------|
G|---17----17----17----17----15-17--------17----17----17----17----15-17-----17-15---|
D|------15----15----15----15-------18-18^----15----15----15----15-------------------|
A|----------------------------------------------------------------------------------|
E|----------------------------------------------------------------------------------|

[Verse 2]
e|-------------------------------------------------------------------|
B|-------------------------------------------------------------------|
G|-------------------------------------------------------------------|
D|---7-7-7-7-7-7-7-7-7-7-7-7-7-7-7-7-7-7-7-7-7-7-7-3-3-3-3-3-3-3-3---|
A|---5-5-5-5-5-5-5-5-5-5-5-5-5-5-5-5-5-5-5-5-5-5-5-1-1-1-1-1-1-1-1---|
E|-------------------------------------------------------------------|
   . .   . .   . .   . .         . .   . .       . .   . .

e|-------------------------------------------------------------|
B|-------------------------------------------------------------|
G|-------------------------------------------------------------|
D|---5-5-5-5-5-5-5-5-5-5-5-5-5-5-5-7-7-7-7-7-7-7-7-12-10-9-5---|
A|---3-3-3-3-3-3-3-3-3-3-3-3-3-3-3-5-5-5-5-5-5-5-5-10-8--7-3---|
E|-------------------------------------------------------------|
   . .   . .   . .   . .         . .   . .

e|-------------------------------------------------------------------|
B|-------------------------------------------------------------------|
G|-------------------------------------------------------------------|
D|---7-7-7-7-7-7-7-7-7-7-7-7-7-7-7-7-7-7-7-7-7-7-7-3-3-3-3-3-3-3-3---|
A|---5-5-5-5-5-5-5-5-5-5-5-5-5-5-5-5-5-5-5-5-5-5-5-1-1-1-1-1-1-1-1---|
E|-------------------------------------------------------------------|
   . .   . .   . .   . .         . .   . .       . .   . .

e|--------------------------------------------------------------------------|
B|--------------------------------------------------------------------------|
G|--------------------------------------------------------------------------|
D|---5-5-5-5-5-5-5-5-5-5-5-5-5-5-5-7-7-7-7-7-7-7-7-7-7-7-7-7-7-5------------|
A|---3-3-3-3-3-3-3-3-3-3-3-3-3-3-3-5-5-5-5-5-5-5-5-5-5-5-5-5-5-3---5---\8---|
E|-----------------------------------------------------------------3---\6---|
   . .   . .   . .   . .         . .   . .   . .   . .

e|-----------------------------|
B|-----------------------------|
G|-------------------------5---|
D|-----------------------------|
A|---7-7-7-7-7-7-7-7-7---7-----|
E|---5-5-5-5-5-5-5-5-5---5-----|
     . . . . . . .

[Bridge]
e|------------------------------------------------------------------------|
B|-------------------21^--21^-21^-21^-21^---------------------------------|
G|-----------17--19-------------------------------------------------------|
D|---15--18---------------------------------------------------------------|
A|------------------------------------------/8-8-8-8-7--7--7--8-8-8-8-7---|
E|------------------------------------------/6-6-6-6-5--5--5--6-6-6-6-5---|
                                           . . . .          . . . .

e|------------------------------------------------------------------|
B|------------------------------------------------------------------|
G|------------------------------------------------------------------|
D|------------------------------------------------------------------|
A|-------5-6-7-5-------6-6-6-6-5--5--5--6-6-6-6-5-------3-4-5-3-----|
E|---5-7---------7-5---4-4-4-4-3--3--3--4-4-4-4-3---3-5---------5---|
                     . . . .          . . . .

e|-------------------------------------------------------------------------------|
B|-----------------------------------------------14h15p14h15p14-14h15p14h15p14---|
G|-------------------------------------------------------------------------------|
D|-------------------------------------------------------------------------------|
A|--4-4-4-4-3--3--3--4-4-4-4-3-------1-2-3-1-------------------------------------|
E|--2-2-2-2-1--1--1--2-2-2-2-1---1-3---------3-1---------------------------------|
  . . . .          . . . .

e|--------------------------------------------------|
B|---14h15p14h15p14-14h15p14h15p14-14h15p14h15p14---|
G|--------------------------------------------------|
D|--------------------------------------------------|
A|--------------------------------------------------|
E|--------------------------------------------------|

[Solo]
e|-----------------15^-15^-13-15-13-12-------------------------------------------|
B|---15-15^-15^p13----------------------14h15p14h15p14---------------------------|
G|-------------------------------------------------------------------------------|
D|-----------------------------------------------------15-14-12-15-14-12-15-14---|
A|-------------------------------------------------------------------------------|
E|-------------------------------------------------------------------------------|

e|-----------------------------------------------------------------------|
B|---------------------------12h14p12h14p12h14p12-10h12p10h12p10h12p10---|
G|-----------------------------------------------------------------------|
D|---17-15-14-17-15-14-17-15---------------------------------------------|
A|-----------------------------------------------------------------------|
E|-----------------------------------------------------------------------|

e|---------------------------------------------------20-----20--------|
B|---9h10p9h10p9h10p9-7h9p7h9p7h9p7-5\------------20^----20^---20^----|
G|-------------------------------------19^-19^-17---------------------|
D|--------------------------------------------------------------------|
A|--------------------------------------------------------------------|
E|--------------------------------------------------------------------|

e|-----------19^-20^-18^-21^-21-19-21^--21^-21t0---|
B|---20^-22^---------------------------------------|
G|-------------------------------------------------|
D|-------------------------------------------------|
A|-------------------------------------------------|
E|-------------------------------------------------|

[Interlude]
e|------------------15----------------------------------|
B|---\15^-15^-17-18----18-------------------------------|
G|------------------------17^---------------------------|
D|----------------------------17-17-15-15-14-14-12-12---|
A|------------------------------------------------------|
E|------------------------------------------------------|

e|------------------15----17^-15--------------------------|
B|---\15^-15^-17-18----18--------17tr--16tr--15tr--14tr---|
G|--------------------------------------------------------|
D|--------------------------------------------------------|
A|--------------------------------------------------------|
E|--------------------------------------------------------|

e|------------------15----------------------------------|
B|---\15^-15^-17-18----18-------------------------------|
G|------------------------17^---------------------------|
D|----------------------------17-17-15-15-14-14-12-12---|
A|------------------------------------------------------|
E|------------------------------------------------------|

e|------------------15----17^-15--------------------------|
B|---\15^-15^-17-18----18--------17tr--16tr---------------|
G|-------------------------------------------12h13-15tr---|
D|--------------------------------------------------------|
A|--------------------------------------------------------|
E|--------------------------------------------------------|

e|------------------------------------|
B|------------------------------------|
G|---15^---15tr--14tr--12tr----12^/---|
D|------------------------------------|
A|------------------------------------|
E|------------------------------------|

[Outro]
e|----------------------------------------------------------------------------------|
B|----------------------------------------------------------------------17^---------|
G|---19----19----19----19----17-19--------19----19----19----19----17-19-----19-17---|
D|------17----17----17----17-------20-20^----17----17----17----17-------------------|
A|----------------------------------------------------------------------------------|
E|----------------------------------------------------------------------------------|

e|----------------------------------------------------------------------------------|
B|----------------------------------------------------------------------17^---------|
G|---19----19----19----19----17-19--------19----19----19----19----17-19-----19-17---|
D|------17----17----17----17-------20-20^----17----17----17----17-------------------|
A|----------------------------------------------------------------------------------|
E|----------------------------------------------------------------------------------|

e|----------------------------------------------------------------------------------|
B|----------------------------------------------------------------------17^---------|
G|---19----19----19----19----17-19--------19----19----19----19----17-19-----19-17---|
D|------17----17----17----17-------20-20^----17----17----17----17-------------------|
A|----------------------------------------------------------------------------------|
E|----------------------------------------------------------------------------------|

e|----------------------------------------------------------------------------------|
B|----------------------------------------------------------------------17^---------|
G|---19----19----19----19----17-19--------19----19----19----19----17-19-----19-17---|
D|------17----17----17----17-------20-20^----17----17----17----17-------------------|
A|----------------------------------------------------------------------------------|
E|----------------------------------------------------------------------------------|

e|---------------|
B|---------------|
G|---------------|
D|---9-9/-\9-9---|
A|---7-7/-\7-7---|
E|---------------|

[How to play]
[Intro 1]
[Verse 1]
[Chorus]
[Intro 2]
[Verse 2]
[Chorus]
[Bridge]
[Solo]
[Interlude]
[Chorus]
[Outro]

************************************

| \   Slide down
| .   Staccato
| /   Slide up
| h   Hammer-on
| p   Pull-off
| t   Tapping
| tr  Trill

************************************

Thanks for using my tab :)
I hope that you learned how to play this song :)
                                                                    by nornor

            
            
Suggest correction
Creating personal tab
Creating personal tab
You can edit any tab online and save it as your Personal.

You can edit, replace or remove any tab part or add personal notes – all changes will be seen only by you.

Personal tabs can be accessed anytime from any device, even offline.
Learn more »
comments
print report bad tab
1 comment total.
0 reply
urf_ 40 May 04, 2008 05:10 AM

intro, verse and chorus way off, spacing is terrible, overall it's poor.

guest
You may want to rate the tab now too:
select rating
Wanna post a correction for this tab? Suggest correction