Oops, an error
Loading. Please wait.
We have an official I Want Out tab made by UG professional guitarists. Check out the tab »
×
11,031 views 24 this week
1 commentread comment
1 2 3 4 5
1 last vote to show rating
add to favorites
×
Save as Personal and add changes to this tab that will be seen only by you. Learn more ›
×
You can save this tab as Personal to edit and correct it or add notes. All changes will be seen only by you. Learn more »
launch autoscroll
font size
0
reset
guitar tuner
backing track
0:00
0:00
edit
Autoscroll
slow
fast
+/-
esc
set tempo
stop
#----------------------------------PLEASE NOTE---------------------------------#
#This file is the author's own work and represents their interpretation of the #
#song. You may only use this file for private study, scholarship, or research. #
#------------------------------------------------------------------------------#

I WANT OUT (Bassline)
As recorded by Helloween
(From the 1988 Album KEEPER OF THE SEVEN KEYS PART 2)

Transcribed by B. Johnson
	

Words and Music by Hansen
Arranged by Hansen

Gtr I (E A D G) - 'Untitled'

   Intro
    Fast Rock Q=174
   4/4
    Gtr I
    E E E E E E E E   E E E E E E E E   E E E E E E E E   E E  Q  E E  Q
||------------------|-----------------|-----------------|-------------------||
||o-----------------|-----------7-----|-----------------|-----10------10---o||
||o-5-5-5-5-5-5-5-5-|-5-5-5-5-5---5-5-|-----------------|------------------o||
||------------------|-----------------|-6-6-6-6-6-6-6-6-|-8-8-----8-8-------||


  E E E E E E E E   E E E E E E E E   E E E E E E E E   E E E E E E E E
|-----------------|-----------------|-----------------|-----------------||
|-----------------|-----------------|-----------------|-5-5-3-3-2-------||
|-5-5-5-5-5-5-5-5-|-5-5-5-5-5-5-5-5-|-5-5-5-5-5-5-5-5-|-------------3-5-||
|-----------------|-----------------|-----------------|-----------------||


 1st, 3rd Verses
  $
  E E E E E E E E   E E E E E E E E   E E E E E E E E   E E E E E E E E
|-----------------|-----------------|-----------------|-----------------|
|-----------------|-----------------|-----------------|-----------------|
|-5-5-5-5-5-5-5-5-|-5-5-5-5-5-5-5-5-|-5-5-5-5-5-5-5-5-|-----------------|
|-----------------|-----------------|-----------------|-6-6-6-6-6-6-6-6-|


  E E E E E E E E   E E E E E E E E   E E E E E E E E   E E E E E E E E
|-----------------|-----------------|-----------------|-----------------||
|-----------------|-----------------|-----------------|-5-5-3-3-2-------||
|-----------------|-----------------|-5-5-5-5-5-5-5-5-|-------------3-5-||
|-8-8-8-8-8-8-8-8-|-8-8-8-8-8-8-8-8-|-----------------|-----------------||


 2nd, 4th Verses
  +E  E E E E E E E   E E E E E E E E   E E E E E E E E   E E E E E E E E
|-------------------|-----------------|-----------------|-----------------|
|-------------------|-----------------|-----------------|-----------------|
|-(5)-5-5-5-5-5-5-5-|-5-5-5-5-5-5-5-5-|-5-5-5-5-5-5-5-5-|-----------------|
|-------------------|-----------------|-----------------|-6-6-6-6-6-6-6-6-|


  E E E E E E E E   E E E E E E E E   E E E E E E E E   E E E E E E Q
|-----------------|-----------------|-----------------|----------------||
|-----------------|-----------------|-----------------|----------------||
|-----------------|-----------------|-5-5-5-5-5-5-5-5-|-5-5-5-5---5-5--||
|-8-8-8-8-8-8-8-8-|-8-8-8-8-8-8-8-8-|-----------------|----------------||


 Pre-Chorus
  E E E E E E E E   E E E E E E E E   E E E E E E E E   E E E E E E E E
|-----------------|-----------------|-----------------|-----------------|
|-----5-------3h5-|-----------------|-----------------|-----------------|
|-3-3---3-3-3-----|-3-3-3-3-3-3-3-3-|-----------------|-----------------|
|-----------------|-----------------|-3-3-3-3-3-3-3-3-|-3-3-3-3-3-3-3h5-|


  E E E E E E E E   E E E E E E E E   E E E E E E E E   E E Q  E Q.
|-----------------|-----------------|-----------------|---------------||
|-----------------|-----------------|-----------7p5---|-7-------------||
|-----------------|-----------------|---------------7-|--------8-7----||
|-6-6-6-6-6-6-6-6-|-6-6-6-6-6-6-6-6-|-5-5-5-5-5-------|---------------||


   Chorus
                                       1.,2.,3.
    E E E E E E E E   E E E E E E E E   E E E E E E E E   E E  Q  E E  Q    4x
||------------------|-----------------|-----------------|-------------------||
||o-----------------|-----------7-----|-----------------|-----10------10---o||
||o-5-5-5-5-5-5-5-5-|-5-5-5-5-5---5-5-|-----------------|------------------o||
||------------------|-----------------|-6-6-6-6-6-6-6-6-|-8-8-----8-8-------||


  4.
                           To Coda
  E E E E E E E E   E E E E E E Q
|-----------------|----------------||
|-----------------|----------------||
|-----------------|----------------||
|-6-6-6-6-6-6-6-6-|-8-8-8-8-8------||


 Pre-Verse
  E E E E E E E E   E E E E E E E E   E E E E E E E E   E E  Q  E E  Q
|-----------------|-----------------|-----------------|-----------------|
|-----------------|-----------7-----|-----------------|-----10------10--|
|-5-5-5-5-5-5-5-5-|-5-5-5-5-5---5-5-|-----------------|-----------------|
|-----------------|-----------------|-6-6-6-6-6-6-6-6-|-8-8-----8-8-----|


                                                           D.S. al Coda
  E E E E E E E E   E E E E E E E E   E E E E E E E E   E E  Q  E E  Q
|-----------------|-----------------|-----------------|-----------------||
|-----------------|-----------7-----|-----------------|-----10------10--||
|-5-5-5-5-5-5-5-5-|-5-5-5-5-5---5-5-|-----------------|-----------------||
|-----------------|-----------------|-6-6-6-6-6-6-6-6-|-8-8-----8-8-----||


  &
  E E E E E E E E   E E E E E E E E   E E E E E E E E   E E E E E E E E
|-----------------|-----------------|-----------------|-----------------||
|-----------------|-----------------|-----------------|-----------------||
|-5-5-5-5-5-5-5-5-|-5-5-5-5-5-5-5-5-|-5-5-5-5-5-5-5-5-|-5-5-5-5-5-5-5-5-||
|-----------------|-----------------|-----------------|-----------------||


 Bridge
                                                            |-3-|
  E E E E Q   Q    Q  Q  H      E E E E Q   Q    E E  E E E S S S  E E
|----------------|------------|----------------|--------7-9-7h9p7--------|
|----------------|------------|----------------|-7-9-10-----------10-9---|
|----------------|------------|----------------|-------------------------|
|-6-6-6-6-5\-----|-5--5-------|-6-6-6-6-5\-----|-------------------------|


                                                           |-3-|
  E E E E Q   Q    Q  Q  H      E E E E Q   Q    E E E E E S S S E E
|----------------|------------|----------------|-----4-5-7-5h7p5-4-----||
|----------------|------------|----------------|-5-7---------------7---||
|----------------|------------|----------------|-----------------------||
|-4-4-4-4-3\-----|-3--3-------|-4-4-4-4-3\-----|-----------------------||


                                                           |-3-|
  E E E E Q   Q    Q  Q  H      E E E E Q   Q    E E E E E S S S E E
|----------------|------------|----------------|-----2-4-5-4h5p4-2-4--||
|----------------|------------|----------------|-3-5------------------||
|----------------|------------|----------------|----------------------||
|-2-2-2-2-1\-----|-1--1-------|-2-2-2-2-1\-----|----------------------||


  Q  E E Q  E E   Q  E E Q  E E   E E E E E E E E   E E E E E E E E
|---------------|---------------|-----------------|------------------||
|---------------|---------------|-----------------|------------------||
|---------------|---------------|-----------------|------------------||
|-3--3-3-3--3-3-|-3--3-3-3--3-3-|-0-0-0-0-0-0-0-0-|-0-0-0-0-0-0-0-0--||


 Guitar Solo
  E E E E E E E E   +E  E E E E E E E   E E E E E E E E   +E  E E E E E E E
|-----------------|-------------------|-----------------|-------------------|
|-----------------|-------------------|-----------------|-------------------|
|-----------------|-------------------|-----------------|-------------------|
|-5-5-5-5-5-5-5-1-|-(1)-1-1-1-1-1-1-1-|-3-3-3-3-3-3-3-0-|-(0)-0-0-0-0-0-0-0-|


  E E E E E E E E   E E E E E E E E   E E E E E E E E   E E E E E E E E
|-----------------|-----------------|-----------------|-----------------|
|-----------------|-----------------|-----------------|-----------------|
|-----------------|-----------------|-----------------|-------7-5-5-3---|
|-1-1-1-1-1-1-1-1-|-3-3-3-3-3-3-3-3-|-5-5-5-5-5-5-5-5-|-5-5-5---------5-|


  +E  E E E E E E E   +E  E E E E E E E   E E E E E E E E   +E  E E E E E E E
|-------------------|-------------------|-----------------|-------------------|
|-------------------|-------------------|-----------------|-------------------|
|-------------------|-------------------|-----------------|-------------------|
|-(5)-5-5-5-5-5-5-1-|-(1)-1-1-1-1-1-1-1-|-3-3-3-3-3-3-3-0-|-(0)-0-0-0-0-0-0-0-|


  E E E E E E E E   E E E E E E E E   E E E E E E E E   E E E E E E E E
|-----------------|-----------------|-----------------|-----------------||
|-----------------|-----------------|-----------------|-----------------||
|-3-3-3-3-3-3-3-3-|-5-5-5-5-5-5-5-5-|-----------------|-----------------||
|-----------------|-----------------|-0-0-0-0-0-0-0-0-|-0-0-0-0-0-0-0-0-||


  E E E E E E E E   +E  E E E E E E E
|-----------------|-------------------|
|-----------------|-------------------|
|-5-5-5-5-5-5-7-8-|-(8)-8-8-8-8-8-8-8-|
|-----------------|-------------------|


  E E E E E E E E   +E  E  E  E E E  E  E
|-----------------|-----------------------|
|-----------------|-----------------------|
|-----------------|-------10-10-----10-10-|
|-8-8-8-8-8-8-8-8-|-(8)-8-------8-8-------|


  E E E E E E E E   +E  E E E E E E E   E E E E E E E E   +E  E Q  E E  E  E
|-----------------|-------------------|-----------------|--------------------|
|-----------------|-------------------|-----------------|--------------------|
|-5-5-5-5-5-5-7-8-|-(8)-8-8-8-8-8-8-8-|-----------------|--------------10-10-|
|-----------------|-------------------|-8-8-8-8-8-8-8-8-|-(8)-8-8--8-8-------|


  E E E E E E E E   +E  E E E E E E E
|-----------------|-------------------|
|-----------------|-------------------|
|-5-5-5-5-5-5-7-8-|-(8)-8-8-8-8-8-8-8-|
|-----------------|-------------------|


  E E E E E E E E   +E  E  E  E E E  E  E
|-----------------|-----------------------|
|-----------------|-----------------------|
|-----------------|-------10-10-----10-10-|
|-8-8-8-8-8-8-8-8-|-(8)-8-------8-8-------|


  E E Q  E E E E   +E  E E E E E E E   E E E E E E E E   +E  E Q  E E  Q
|-----7----------|-------------------|-----------------|-------------------|
|----------------|-------------------|-----------------|-------------------|
|-5-5----5-5-7-8-|-(8)-8-8-8-8-8-8-8-|-----------------|--------------10\--|
|----------------|-------------------|-8-8-8-8-8-8-8-8-|-(8)-8-8--8-8------|


   Interlude
    E E E E E E E E   E E E E E E E E   E E E E E E E E   E E E E E E E E   3x
||------------------|-----------------|-----------------|-------------------||
||o-----------------|---------------3-|---------------3-|---------------3--o||
||o-5-5-5-5-5-5-5-5-|-5-5-5-5-5-5-5---|-1-1-1-1-1-1-1---|-3-3-3-3-3-3-3----o||
||------------------|-----------------|-----------------|-------------------||


  E E E E E E E E   E E E E E E E E   E E E E E E E E   E E Q  Q  Q
|-----------------|-----------------|-----------------|---------------||
|-----------------|-----------------|-----------------|---------------||
|-5-5-5-5-5-5-5-5-|-5-5-5-5-5-5-5-5-|-1-1-1-1-1-1-1-1-|-3-------------||
|-----------------|-----------------|-----------------|-----------8\--||


   Out-Chorus
                                       1.,2.,3.
    E E E E E E E E   E E E E E E E E   E E E E E E E E   E E  Q  E E  Q    4x
||------------------|-----------------|-----------------|-------------------||
||o-----------------|-----------------|-----------------|-----10------10---o||
||o-5-5-5-5-5-5-5-5-|-5-5-5-5-5-5-5-5-|-----------------|------------------o||
||------------------|-----------------|-6-6-6-6-6-6-6-6-|-8-8-----8-8-------||


  4.
  E E E E E E E E   E E E E Q  Q
|-----------------|---------------||
|-----------------|---------------||
|-5-5-5-5-5-5-5-5-|-3-3-3-3-3-----||
|-----------------|---------------||


    E E E E E E E E   E E E E E E E E   E E E E E E E E   E E Q  E E Q    4x
||------------------|-----------------|-----------------|-----------------||
||o-----------------|-----------------|-----------------|----------------o||
||o-7-7-7-7-7-7-7-7-|-7-7-7-7-7-7-7-7-|-----------------|-5-5-5--5-5-5---o||
||------------------|-----------------|-8-8-8-8-8-8-8-8-|-----------------||


  E E Q  H      E E Q  H
|-------------|-------------*|
|-------------|-------------*|
|-7-7---------|-------------*|
|-------------|-0-0---------*|



Duration Legend
---------------
W - whole; H - half; Q - quarter; E - 8th; S - 16th; T - 32nd; X - 64th; a - acciaccatura
+ - note tied to previous; . - note dotted; .. - note double dotted
Uncapitalized letters represent notes that are staccato (1/2 duration)
Irregular groupings are notated above the duration line
Duration letters will always appear directly above the note/fret number it represents the
duration for.  Duration letters with no fret number below them represent rests.  Multi-
bar rests are notated in the form Wxn, where n is the number of bars to rest for.  Low
melody durations appear below the staff

Tablature Legend
----------------
 h   - hammer-on
 p   - pull-off
 b   - bend
 pb  - pre-bend
 r   - bend release (if no number after the r, then release immediately)
 /\  - slide into or out of (from/to "nowhere")
 s   - legato slide
 S   - shift slide
 - natural harmonic
[n]  - artificial harmonic
n(n) - tapped harmonic
 ~   - vibrato
 tr  - trill
 T   - tap
 TP  - trem. picking
 PM  - palm muting
\n/  - tremolo bar dip; n = amount to dip
 \n  - tremolo bar down
 n/  - tremolo bar up
/n\  - tremolo bar inverted dip
 =   - hold bend; also acts as connecting device for hammers/pulls
 <> - volume swell (louder/softer)
 x   - on rhythm slash represents muted slash
 o   - on rhythm slash represents single note slash

Misc Legend
-----------
 |  - bar
||  - double bar
||o - repeat start
o|| - repeat end
*|  - double bar (ending)
 :  - bar (freetime)
 $  - Segno
 &  - Coda
Tempo markers -  = BPM(8/16=s8/s16), where s8 = swing 8ths, s16 = swing 16ths

Suggest correction
Creating personal tab
Creating personal tab
You can edit any tab online and save it as your Personal.

You can edit, replace or remove any tab part or add personal notes – all changes will be seen only by you.

Personal tabs can be accessed anytime from any device, even offline.
Learn more »
Give kudos to tab author, rate the tab!
1 2 3 4 5
comments
print report bad tab
1 comment total.
0 reply
scorpion9199 10 Jun 02, 2010 12:12 PM

Really good tab, dude, except I like to play the main riff on the higher strings. However, I want to make sure: Verses 2 and 4 are referring to the parts that go "In school they teach you what to think..." and "So they push me then from side to side..." right?

guest
You may want to rate the tab now too:
select rating
Wanna post a correction for this tab? Suggest correction