Oops, an error
Loading. Please wait.

Mrs God Tab

version 1
version 1

Whole song

Interactive

7,170 views 3 this week
1 commentread comment
1 2 3 4 5
please rate
add to favorites
launch autoscroll
font size
0
reset
how to read this tab
guitar tuner
Autoscroll
slow
fast
+/-
esc
set tempo
stop
Help us to improve Ultimate-Guitar.com Take our survey!
×
Difficulty
intermediate
Title: Mrs God
Artist: Helloween
Album: Keeper of seven keys -The Legacy-

by CAMMELLO DA CORSA  cammello_da_corsa@inwind.it

Tuning chords: D# A# F# C# G# C#

Tempo= 140

1st Guitar
Intro                                       x4
 |--------------------|--------------------|
 |-----12--------15---|-----12--15-14------|
 |-11-------12-----12-|-11-----------14-12-|
 |---9---9----9-------|---9---9------------|
 |--------------------|--------------------|
 |--------------------|--------------------|
P.M...........................................

--At second times start 2nd Guitar--

2nd Guitar                                  x2
  |--------------------|--------------------|
  |--------------------|--------------------|
  |--------------------|-------------2------|
  |--4--2-4----4-2-4---|--4-2-4----4--4-----|
  |-2---------2--------|-2--------2---------|
  |--------------------|--------------------|
P.M...........................................   

1st Verse (Bass)
  Mrs. God...
          ... confess ?


1st Verse                                   x2
  |--------------------|--------------------|      |---|
  |-----12--------15---|-----12--15-14------|      |---|
  |-11-------12-----12-|-11-----------14-12-| next |---|
  |---9---9----9-------|---9---9------------| play |-5-|
  |--------------------|--------------------|      |-5-|
  |--------------------|--------------------|      |-5-|
P.M...........................................

  Free...
      ...humility



2nd Guitar                                  x2
  |--------------------|--------------------|
  |--------------------|--------------------|
  |--------------------|-------------2------|
  |--4--2-4----4-2-4---|--4-2-4----4--4-----|
  |-2---------2--------|-2--------2---------|
  |--------------------|--------------------|
P.M........................................... 

2nd Verse
  Mrs God...           
         ...bride?
                      


2nd Verse                                   x2
  |--------------------|--------------------|      |---|
  |-----12--------15---|-----12--15-14------|      |---|
  |-11-------12-----12-|-11-----------14-12-| next |---|
  |---9---9----9-------|---9---9------------| play |-5-|
  |--------------------|--------------------|      |-5-|
  |--------------------|--------------------|      |-5-|
P.M...........................................

  This would...                  
            ...stumbling


Chours                                                                              
  |-----------------------|------------------|------------------|------------------|
  |-----------------------|------------------|------------------|------------------|
  |-----------------------|------------------|------------------|------------------|
  |-----------10-10-10-10-|-5-5-5-5----------|------------------|-7-7-7-7----------|
  |--7-7-7-7--8--8--8--8--|-3-3-3-3--5-5-5-5-|-7-7-7-7--3-3-3-3-|-5-5-5-5----------|
  |--7-7-7-7--------------|----------5-5-5-5-|-7-7-7-7--3-3-3-3-|----------5-7-9-5-|
                                                                        P.M..........

  |-----------------------|------------------|------------------|------------------|
  |-----------------------|------------------|------------------|------------------|
  |-----------------------|------------------|------------------|------------------|
  |-----------10-10-10-10-|-5-5-5-5----------|------------------|-7-7-7-7----------|
  |--7-7-7-7--8--8--8--8--|-3-3-3-3--5-5-5-5-|-7-7-7-7--3-3-3-3-|-5-5-5-5--5-5-5-5-|
  |--7-7-7-7--------------|----------5-5-5-5-|-7-7-7-7--3-3-3-3-|----------5-5-5-5-|
                                                                                   x2

Mrs God                                        
Are You there                                 
...


Chours                                       x2 
  |------0--------0-------|-----0--------0---|
  |----0---0----0---0-----|---0---0----0---0-|
  |--4--------------------|------------------|
  |-----------5-----------|-6--------7-------|
  |-----------------------|------------------|
  |-----------------------|------------------|
                                                                        
  Mrs. God...                         
          ...blind 

--2nd part--
 

  Mrs God...
         ...file               


2nd Verse                                   x2
  |--------------------|--------------------|      |---|
  |-----12--------15---|-----12--15-14------|      |---|
  |-11-------12-----12-|-11-----------14-12-| next |---|
  |---9---9----9-------|---9---9------------| play |-5-|
  |--------------------|--------------------|      |-5-|
  |--------------------|--------------------|      |-5-|
P.M...........................................

  And...
     ...beard

Chours                                                                                            
  |-----------|  |----------------------|------------------|------------------|------------------|
  |-----------|  |----------------------|------------------|------------------|------------------|
  |-----------|  |----------------------|------------------|------------------|------------------|
  |---2---2---|  |----------10-10-10-10-|-5-5-5-5----------|------------------|-7-7-7-7----------|
  |---2---2---|  |-7-7-7-7--8--8--8--8--|-3-3-3-3--5-5-5-5-|-7-7-7-7--3-3-3-3-|-5-5-5-5----------|
  |---2---2---|  |-7-7-7-7--------------|----------5-5-5-5-|-7-7-7-7--3-3-3-3-|----------5-7-9-5-|
                                                                                      P.M..........

  |-----------------------|------------------|------------------|------------------|
  |-----------------------|------------------|------------------|------------------|
  |-----------------------|------------------|------------------|------------------|
  |-----------10-10-10-10-|-5-5-5-5----------|------------------|-7-7-7-7----------|
  |--7-7-7-7--8--8--8--8--|-3-3-3-3--5-5-5-5-|-7-7-7-7--3-3-3-3-|-5-5-5-5--5-5-5-5-|
  |--7-7-7-7--------------|----------5-5-5-5-|-7-7-7-7--3-3-3-3-|----------5-5-5-5-|
                                                                                   x2

Mrs God                                        
Are You there                                 
...  


--Guitar Solo--

Bridge
  |--0--0--------------------|------------------------|--0--0--------------------|
  |--1--1--------1--1--------|--5--5------------------|--1--1--------1--1--------|
  |--2--2--x--x--2--2--x--x--|--5--5--x--x--4--4------|--2--2--x--x--2--2--x--x--|
  |--2--2--x--x--3--3--x--x--|--5--5--x--x--5--5--x-x-|--2--2--x--x--3--3--x--x--|
  |--0--0--x--x--3--3--x--x--|--3--3--x--x--5--5--x-x-|--0--0--x--x--3--3--x--x--|
  |--------------3--3--------|--------------5--5--x-x-|--------------3--3--------|


--Bass Solo--

Chours                                                                             
  |----------------------|------------------|------------------|------------------| 
  |----------------------|------------------|------------------|------------------|
  |----------------------|------------------|------------------|------------------|
  |----------10-10-10-10-|-5-5-5-5----------|------------------|-7-7-7-7----------|
  |-7-7-7-7--8--8--8--8--|-3-3-3-3--5-5-5-5-|-7-7-7-7--3-3-3-3-|-5-5-5-5----------|
  |-7-7-7-7--------------|----------5-5-5-5-|-7-7-7-7--3-3-3-3-|----------5-7-9-5-|
                                                                        P.M..........
                                                    at 4th time ==================>      play low           
  |----------------------|------------------|------------------|------------------|      |-----------|--------|
  |----------------------|------------------|------------------|------------------|      |-----------|--------|
  |----------------------|------------------|------------------|------------------| end  |--7--7--7--|--7-----|
  |----------10-10-10-10-|-5-5-5-5----------|------------------|-7-7-7-7----------| part |--7--7--7--|--7--5--|
  |-7-7-7-7--8--8--8--8--|-3-3-3-3--5-5-5-5-|-7-7-7-7--3-3-3-3-|-5-5-5-5-5-5-5-5--|      |--5--5--5--|--5--5--|
  |-7-7-7-7--------------|----------5-5-5-5-|-7-7-7-7--3-3-3-3-|---------5-5-5-5--|      |-----------|-----5--|
                                                                                   x4
Mrs God                                        
Are You there                                 
...  


Guitar Key:
Legend
fb   - full bend
hb   - half bend
~    - vibrato
Tr   - trill
H.  - artificial harmonic
/ \  - slide up/down
P.M. - palm muting                                                       
comments
We did not receive enough feedback on this tab! Please rate:
print report bad tab
1 2 3 4 5
1 comment total.
0 reply
BaptizedinFire 11,220 wrote on October 10 2006, 12:39 pm

Good job, we need more tabs from "Keeper - the Legacy"

I want to post or [tab]
guest
You may want to rate the tab now too:
select rating
Please do not post tabs as comments. Select "correction" instead!