Oops, an error
Loading. Please wait.

Alcohaulin Ass Tab

version 1
version 1

Whole song

Interactive

42,026 views 18 this week
9 commentsread comments
1 2 3 4 5
x 11
add to favorites
launch autoscroll
font size
0
reset
how to read this tab
guitar tuner
Autoscroll
slow
fast
+/-
esc
set tempo
stop
Help us to improve Ultimate-Guitar.com Take our survey!
×
Author
Tuning
D A D G B E
sorry i dont have the solo, slide guitar and rest of the chorus but i either couldnt 
out certain parts or wasnt sure if it was correct so i left it out but hopefully this will 
someone else so they can get the rest of it


ALCOHAULIN ASS


GUITAR 1-Acoustic
GUITAR 2-Acoustic w/Slide
GUITAR 3-Distorted
GUITAR 4-Distorted


INTRO (first "D" chords are upstrokes)
|--------------------------|------------------------|
|----------------3--3-3-3--|---------------3--3-3-3-|
|----2--2-2------2--2-2-2--|----2--2-2-----2--2-2-2-|
|----0--0-0------0--0-0-0--|----0--0-0-----1--1-1-1-|
|-0--0--0-0------0--0-0-0--|-0--0--0-0-----0--0-0-0-|
|-0--0--0-0-0h3--0--0-0-0--|-0--0--0-0-0h3-0--0-0-0-|


|--------------------------|------------------------|
|----------------3--3-3-3--|---------------3--3-3-3-|
|----2--2-2------2--2-2-2--|----2--2-2-----2--2-2-2-|
|----0--0-0------0--0-0-0--|----0--0-0-----1--1-1-1-|
|-0--0--0-0------0--0-0-0--|-0--0--0-0-----0--0-0-0-|
|-0--0--0-0-0h3--0--0-0-0--|-0--0--0-0-0h3-0--0-0-0-|
                                             Come on


VERSE 1
|--------------------------|------------------------|
|----------------3--3-3-3--|---------------3--3-3-3-|
|----2--2-2------2--2-2-2--|----2--2-2-----2--2-2-2-| 4x
|----0--0-0------0--0-0-0--|----0--0-0-----1--1-1-1-|
|-0--0--0-0------0--0-0-0--|-0--0--0-0-----0--0-0-0-|
|-0--0--0-0-0h3--0--0-0-0--|-0--0--0-0-0h3-0--0-0-0-|
A little bit of sunshine, a little bit a booze
A little bit of me, and a little bit of you
A little bit country, a little a blues
A little slice of heaven, and a little piece of you come on


CHORUS
|------------------|
|------------------|
|-3--3--2--2-----2-|
|-3--3--2--2-----0-|
|-3--3--2--2--0--0-|
|-3--3--2--2--0--0-|
Alcohaulin ass


|-------------------------------------|
|---------------------------3--3-3-3--|
|-3--3--2--2-----2--2-2-----2--2-2-2--|
|-3--3--2--2-----0--0-0-----0--0-0-0--|
|-3--3--2--2--0--0--0-0-----0--0-0-0--|
|-3--3--2--2--0--0--0-0-0h3-0--0-0-0--|
Pour another drink in my glass


|------------------|
|------------------|
|-3--3--2--2-----2-|
|-3--3--2--2-----0-|
|-3--3--2--2--0--0-|
|-3--3--2--2--0--0-|
Alcohaulin ass


|-------------|
|-------------|
|-3--3--2-----|
|-3--3--2-----|
|-3--3--2-----|
|-3--3--2-----|
Alcohaul


PRE-VERSE
|--------------------------|------------------------|
|----------------3--3-3-3--|---------------3--3-3-3-|
|----2--2-2------2--2-2-2--|----2--2-2-----2--2-2-2-|
|----0--0-0------0--0-0-0--|----0--0-0-----1--1-1-1-|
|-0--0--0-0------0--0-0-0--|-0--0--0-0-----0--0-0-0-|
|-0--0--0-0-0h3--0--0-0-0--|-0--0--0-0-0h3-0--0-0-0-|
n ass

                             *Drums enter
|--------------------------|------------------------|
|----------------3--3-3-3--|---------------3--3-3-3-|
|----2--2-2------2--2-2-2--|----2--2-2-----2--2-2-2-|
|----0--0-0------0--0-0-0--|----0--0-0-----1--1-1-1-|
|-0--0--0-0------0--0-0-0--|-0--0--0-0-----0--0-0-0-|
|-0--0--0-0-0h3--0--0-0-0--|-0--0--0-0-0h3-0--0-0-0-|


VERSE 2
A little bit thirsty, a little bit used
A little bit a whiskey, and a little pinch a chew
A little bit tired, and a bad attitude


|--------------------------|------------------------|
|----------------3--3-3-3--|---------------3--3-3-3-|
|----2--2-2------2--2-2-2--|----2--2-2-----2--2-2-2-|
|----0--0-0------0--0-0-0--|----0--0-0-----1--1-1-1-|
|-0--0--0-0------0--0-0-0--|-0--0--0-0-----0--0-0-0-|
|-0--0--0-0-0h3--0--0-0-0--|-0--0--0-0-0h3-0--0-0-0-|
|
|
|GUITAR 3
|--------------------------|------------------------|
|--------------------------|------------------------|
|--------------------------|------------------------|
|--------------------------|---------------x\\\\\\\-|
|--------------------------|---------------x\\\\\\\-|
|--------------------------|------------------------|
A little bit a drinkin, and another piece of you yeah come on!


CHORUS
GUITARS 3 & 4
|------------------|
|------------------|
|-3--3--2--2-----2-|
|-3--3--2--2-----0-|
|-3--3--2--2--0--0-|
|-3--3--2--2--0--0-|                    \
                                        \ 2x
                                        /
|-------------------------------------|/
|---------------------------3--3-3-3--|
|-3--3--2--2-----2--2-2-----2--2-2-2--|
|-3--3--2--2-----0--0-0-----0--0-0-0--|
|-3--3--2--2--0--0--0-0-----0--0-0-0--|
|-3--3--2--2--0--0--0-0-0h3-0--0-0-0--|
Alcohaulin ass
Pour another drink in my glass yeah come on
Alcohaulin ass alcohaulin
Alcohaulin


PRE-SOLO
GUITAR 3
|-
|-
|-
|-
|-
|-
|
|
|GUITAR 4
|-
|-
|-
|-
|-
|-
Yeah, yeah, yeah yeah yeah, come on!


SOLO (guitar 3 plays chorus)
GUITAR 4
|-
|-
|-
|-
|-
|-


VERSE 3
GUITAR 1
|-
|-
|-
|-
|-
|-
You drove me to it, so there was nothin I could do
You pushed me down, split me right in two


GUITARS 3 & 4
|-
|-
|-
|-
|-
|-
Now i've hauled the long hard load, carried the weight of you
Boy oh boy goddamn theres ony one thing left to do, a little bit a


CHORUS
GUITARS 3 & 4
|------------------|
|------------------|
|-3--3--2--2-----2-|
|-3--3--2--2-----0-|
|-3--3--2--2--0--0-|
|-3--3--2--2--0--0-|                    \
                                        \ 4x
                                        /
|-------------------------------------|/
|---------------------------3--3-3-3--|
|-3--3--2--2-----2--2-2-----2--2-2-2--|
|-3--3--2--2-----0--0-0-----0--0-0-0--|
|-3--3--2--2--0--0--0-0-----0--0-0-0--|
|-3--3--2--2--0--0--0-0-0h3-0--0-0-0--|
Alcohaulin ass
Pour another drink in my glass yeah come on
Alcohaulin ass alcohaulin
Theres only one thing left to do yeah a little bit a
Alcohaulin ass Alcohaulin ass
Pour another drink in my glass pour another drink in my glass
Alcohaulin ass Alcohaulin ass
Alcohaul


OUTRO
GUITAR 1
|---------------------|
|----------------3----|
|----2--2-2------2----|
|----0--0-0------0----|
|-0--0--0-0------0----|
|-0--0--0-0-0h3--0----|
n ass
Suggest correction
comments
print report bad tab
9 comments total. Showing first comments.
-1 reply
Kreuger 792 Aug 20, 2007 12:20 PM

I'm surprised this song is only in Drop D. Most of the other stuff is way lower. Anyway, not bad.You should've left out the parts you dont have though.

-1 reply
ParkerScks 41 Sep 20, 2007 09:55 PM

=[ i dont have the right type of accustic to play it

+1 reply
creedc 61 Oct 21, 2007 01:19 AM

dunno if the author sees these comments and can edit his tab, but there's one small change he can do to make it more correct (not big enough to post a ver2):

For the intro (and similar parts), where he has 00123x, I think it's 00034x (so he has the right idea... there's a D# in there... just done differently).

When playing acoustic alone, it sounds really good to do the chord progression with the D on bottom like this:

33323x
22223x
00023x

guest
You may want to rate the tab now too:
select rating
Wanna post a correction for this tab? Suggest correction