Oops, an error
Loading. Please wait.

Alcohaulin Ass tab

version 3
version 3

Whole song

Interactive

33,193 views 6 this week
no commentswrite comment
1 2 3 4 5
x 6
add to favorites
×
Save as Personal and add changes to this tab that will be seen only by you. Learn more ›
×
You can save this tab as Personal to edit and correct it or add notes. All changes will be seen only by you. Learn more »
launch autoscroll
font size
0
reset
how to read this tab
guitar tuner
edit
Autoscroll
slow
fast
+/-
esc
set tempo
stop
/-slide
bt-bend up 3 steps
b-bend
hb-half bend
h-hammer

Intro
Guitar 1 Acoustic
E|---------------------|--------------------------|
B|----3--33------3--33-|----3--33------3--33------|
G|----2--22------0--00-|----2--22------2--22------|
D|-0--0--00------0--00-|-0--0--00------1--11------|
A|-0-------------------|-0------------------------|
D|-0---------0-3-------|-0---------0-3------------|
Guitar 2 Electric
E|---------------------|---------------5-5-3------|
B|---------------------|--------------------5/6b--|
G|---------------------|--------------------------|
D|---------------------|--------------------------|
A|---------------------|--------------------------|
D|---------------------|--------------------------|
Guitar 1
E|---------------------|--------------------------|
B|----3--33------3--33-|----3--33------3--33------|
G|----2--22------0--00-|----2--22------2--22------|
D|-0--0--00------0--00-|-0--0--00------1--11------|
A|-0-------------------|-0------------------------|
D|-0---------0-3-------|-0---------0-3------------|
Guitar 2
E|---------------------|---------------8----8---8h|
B|---------------------|----------------10---10---|
G|---------------------|------------------11--11--|
D|---------------------|--------------------------|
A|---------------------|--------------------------|
D|---------------------|--------------------------|

Verse
Guitar 1 Acoustic
E|---------------------|--------------------------|
B|----3--33------3--33-|----3--33------3--33------|
G|----2--22------0--00-|----2--22------2--22------|
D|-0--0--00------0--00-|-0--0--00------1--11------|
A|-0-------------------|-0------------------------|
D|-0---------0-3-------|-0---------0-3------------|
Guitar 2 Electric
E|---------------------|--------------------------|
B|---------------------|-------------------5/6b---|
G|---------------------|--------------------------|
D|---------------------|--------------------------|
A|---------------------|--------------------------|
D|---------------------|--------------------------|
Guitar 1
E|---------------------|--------------------------|
B|----3--33------3--33-|----3--33------3--33------|
G|----2--22------0--00-|----2--22------2--22------|
D|-0--0--00------0--00-|-0--0--00------1--11------|
A|-0-------------------|-0------------------------|
D|-0---------0-3-------|-0---------0-3------------|
Guitar 2
E|---------------------|--------------------------|
B|---------------------|---------------7-7-5------|
G|---------------------|--------------------5/6b--|
D|---------------------|--------------------------|
A|---------------------|--------------------------|
D|---------------------|--------------------------|
Guitar 1
E|---------------------|--------------------------|
B|----3--33------3--33-|----3--33------3--33------|
G|----2--22------0--00-|----2--22------2--22------|
D|-0--0--00------0--00-|-0--0--00------1--11------|
A|-0-------------------|-0------------------------|
D|-0---------0-3-------|-0---------0-3------------|
Guitar 2
E|---------------------|---------------8--8-------|
B|---------------------|----------------10-10-----|
G|---------------------|--------------------------|
D|---------------------|--------------------------|
A|---------------------|--------------------------|
D|---------------------|--------------------------|
Guitar 1
E|---------------------|--------------------------|
B|----3--33------3--33-|----3--33------3--33------|
G|----2--22------0--00-|----2--22------2--22------|
D|-0--0--00------0--00-|-0--0--00------1--11------|
A|-0-------------------|-0------------------------|
D|-0---------0-3-------|-0---------0-3------------|
Guitar 2
E|---------------------|---------------8----------|
B|---------------------|---------------10---------|
G|---------------------|--------------------------|
D|---------------------|--------------------------|
A|---------------------|--------------------------|
D|---------------------|--------------------------|

Chorus
Guitar 1 Acoustic
E|---------------------|--------------------------|
B|---------------------|--------------------------|
G|---------------------|--------------------------|
D|-3-----2------0------|--0-----0000-----0--0-----|
A|-3-----2------0------|--0-----0000-----0--0-----|
D|-3-----2------0------|--0-----0000-----0--0-----|
Guitar 2 Electric
E|-------8/3----7/1----|--------2/1---------------|
B|-10------------------|-----------1/3-----10-----|
G|---------------------|-----------------10-------|
D|---------------------|--------------------------|
A|---------------------|--------------------------|
D|---------------------|--------------------------|
Guitar 1
E|---------------------|--------------------------|
B|---------------------|--------------------------|
G|---------------------|--------------------------|
D|-3-----2------0------|--0-----0000-----0--0-----|
A|-3-----2------0------|--0-----0000-----0--0-----|
D|-3-----2------0------|--0-----0000-----0--0-----|
Guitar 2
E|-------8/3----7/1----|--------2/1---------------|
B|-10------------------|-----------1/3-----10-----|
G|---------------------|-----------------10-------|
D|---------------------|--------------------------|
A|---------------------|--------------------------|
D|---------------------|--------------------------|
Guitar 1
E|---------------------|--------------------------|
B|---------------------|--------------------------|
G|---------------------|--------------------------|
D|-3-----2------0------|--0-----0000-----0--0-----|
A|-3-----2------0------|--0-----0000-----0--0-----|
D|-3-----2------0------|--0-----0000-----0--0-----|
Guitar 2
E|-------8/3----7/1----|--------2/1---------------|
B|-10------------------|-----------1/3-----10-----|
G|---------------------|-----------------10-------|
D|---------------------|--------------------------|
A|---------------------|--------------------------|
D|---------------------|--------------------------|
Guitar 1
E|--------------------------|
B|--------------------------|
G|--------------------------|
D|-------3---------2--------|
A|-------3---------2--------|
D|-------3---------2--------|
Guitar 2
E|--------------------------|
B|--------------------------|
G|--------------------------|
D|--------------------------|
A|--------------------------|
D|--------------------------|

Interlude
Guitar 1 
E|---------------------|--------------------------|
B|----3--33------3--33-|----3--33------3--33------|
G|----2--22------0--00-|----2--22------2--22------|
D|-0--0--00------0--00-|-0--0--00------1--11------|
A|-0-------------------|-0------------------------|
D|-0---------0-3-------|-0---------0-3------------|
Guitar 2 
E|-------------8-------|------------5-------------|
B|-3-3/1-1/3-10-10-----|-7-7/5-5/7-7--------------|
G|---------------------|--------------------------|
D|---------------------|--------------------------|
A|---------------------|--------------------------|
D|---------------------|--------------------------|
Guitar 1
E|---------------------|-0------------------------|
B|----3--33------3--33-|-3------------------------|
G|----2--22------0--00-|-2------------------------|
D|-0--0--00------0--00-|-0------------------------|
A|-0-------------------|-0------------------------|
D|-0---------0-3-------|-0------------------------|
Guitar 2
E|-------------8-------|------------5h------------|
B|-7-7/5-5/7-10-10-----|-7-7/5-5/7-7--------------|
G|---------------------|--------------------------|
D|---------------------|--------------------------|
A|---------------------|--------------------------|
D|---------------------|--------------------------|

Verse 2
Guitar 1
E|---------------------|--------------------------|\
B|----3--33------3--33-|----3--33------3--33------| \
G|----2--22------0--00-|----2--22------2--22------|  \
D|-0--0--00------0--00-|-0--0--00------1--11------|   \
A|-0-------------------|-0------------------------|    \
D|-0---------0-3-------|-0---------0-3------------|     \
Guitar 2                                                x4
E|---------------------|--------------------------|     /
B|---------------------|--------------------------|    /
G|---------------------|--------------------------|   /
D|---------------------|--------------------------|  /
A|---------------------|--------------------------| /
D|---------------------|--------------------------|/

Chorus 2
Guitar 1 Electric
E|---------------------|--------------------------|\
B|---------------------|--------------------------| \
G|---------------------|--------------------------|  \ 
D|-3---------2---------|-0------------------------|   \
A|-3---------2---------|-0------------------------|    \
D|-3---------2---------|-0------------------------|     \
Guitar 2 Acoustic                                       x4
E|---------------------|--------------------------|     /
B|---------------------|--------------------------|    /
G|---------------------|--------------------------|   /
D|---------------------|--------------------------|  /
A|---------------------|--------------------------| /
D|---------------------|--------------------------|/

(During the first measure, you play the note really fast a lot of times, but it
sounds like just one note.)
Solo
Guitar 1 Electric Lead
E|---8--7------------------------------|-----------------------------------|
B|----------10---8---------------------|---10hb-------9hb-------10hb-------|
G|-------------------10----------------|---10hb--9-7--9hb-9-7---10hb-------|
D|---------------------------7---------|-----------------------------------|
A|-------------------------------------|-----------------------------------|
D|-------------------------------------|-----------------------------------|
Guitar 2 Electric Rhythm
E|-------------------------------------|-----------------------------------|
B|-------------------------------------|-----------------------------------|
G|-------------------------------------|-----------------------------------|
D|-----3--------------2----------------|--0--------------------------------|
A|-----3--------------2----------------|--0--------------------------------|
D|-----3--------------2----------------|--0--------------------------------|
Guitar 1
E|-------------------------------------|-----------------------------------|
B|-------------------------------------|--6----6---6---8---6-8---6--8------|
G|---7---------------------------------|--7------7-----7---7-7---7--7------|
D|-----7--------------------7----------|-----------------------------------|
A|--------10-8-5-8-10-8-10----10-8-3/5-|-----------------------------------|
D|-------------------------------------|-----------------------------------|
Guitar 2
E|-------------------------------------|-----------------------------------|
B|-------------------------------------|-----------------------------------|
G|-------------------------------------|-----------------------------------|
D|-----3--------------2----------------|--0--------------------------------|
A|-----3--------------2----------------|--0--------------------------------|
D|-----3--------------2----------------|--0--------------------------------|
Guitar 1
E|-------------------------------------|------------21bt-21b---------------|
B|-------------------------------------|------------21bt-21b---------------|
G|-------------------------------------|-----------------------------------|
D|-------------------------------------|--3--------------------------------|
A|-3/5-5/8-8/10-5-8-10-8-5-3-10-8-5-0--|--3--------------------------------|
D|-------------------------------------|--3--------------------------------|
Guitar 2
E|-------------------------------------|-----------------------------------|
B|-------------------------------------|-----------------------------------|
G|-------------------------------------|-----------------------------------|
D|-----3--------------2----------------|--0--------------------------------|
A|-----3--------------2----------------|--0--------------------------------|
D|-----3--------------2----------------|--0--------------------------------|
Guitar 1
E|-------------------------------------|--10-------------------------------|
B|--------------------------------10-13|-----|10-13|-----------------------|
G|-12-10-10--10-9-10-12--9-10-9-10-----|-----repeat as quikly as possible--|
D|-12-10-10--10-9-10-12--9-10-9-10-----|-----until the measure ends--------|
A|-------------------------------------|-----------------------------------|
D|-------------------------------------|-----------------------------------|
Guitar 2
E|-------------------------------------|-----------------------------------|
B|-------------------------------------|-----------------------------------|
G|-------------------------------------|-----------------------------------|
D|-----3--------------2----------------|--0--------------------------------|
A|-----3--------------2----------------|--0--------------------------------|
D|-----3--------------2----------------|--0--------------------------------|
Guitar 1
E|-------------|
B|-10hb--------|
G|-12hb--------|
D|-------------|
A|-------------|
D|-------------|
Guitar 2
E|-------------|
B|-------------|
G|-------------|
D|--5hb--------|
A|--5hb--------|
D|--5hb--------|

Bridge
Guitar 1 Acoustic         
E|-----|-----|-----|-----|-----|-----|-----|-----|
B|-----|-----|-----|-----|-----|-----|-----|-----|
G|-----|-----|-----|-----|-----|-----|-----|-----|
D|-12--|-10--|--9--|--0--|-----|-----|-----|-----|
A|-12--|-10--|--9--|--0--|-----|-----|-----|-----|
D|-12--|-10--|--9--|--0--|-----|-----|-----|-----|
Guitar 2 Electric
E|-----|-----|-----|-----|-----|-----|-----|-----|
B|-----|-----|-----|-----|-----|-----|-----|-----|
G|-----|-----|-----|-----|-----|-----|-----|-----|
D|-----|-----|-----|-----|-12--|-10--|--9--|--0--|
A|-----|-----|-----|-----|-12--|-10--|--9--|--0--|
D|-----|-----|-----|-----|-12--|-10--|--9--|--0--|

Chorus 3
Guitar 1 Electric
E|---------------------|--------------------------|\
B|---------------------|--------------------------| \
G|---------------------|--------------------------|  \ 
D|-3---------2---------|-0------------------------|   \
A|-3---------2---------|-0------------------------|    \
D|-3---------2---------|-0------------------------|     \
Guitar 2 Acoustic                                       x8
E|---------------------|--------------------------|     /
B|---------------------|--------------------------|    /
G|---------------------|--------------------------|   /
D|---------------------|--------------------------|  /
A|---------------------|--------------------------| /
D|---------------------|--------------------------|/

Outtro
Guitar 1 Acoustic
E|------------------|
B|----3--33------3--|
G|----2--22------0--|
D|-0--0--00------0--|
A|-0----------------|
D|-0---------0-3----|

            
            
Suggest correction
Creating personal tab
Creating personal tab
You can edit any tab online and save it as your Personal.

You can edit, replace or remove any tab part or add personal notes – all changes will be seen only by you.

Personal tabs can be accessed anytime from any device, even offline.
Learn more »
comments
print report bad tab
guest
You may want to rate the tab now too:
select rating
Wanna post a correction for this tab? Suggest correction