Oops, an error
Loading. Please wait.

Matter Of Time tab

version 3
version 3

Whole song

Interactive

2,524 views 1 this week
3 commentsread comments
1 2 3 4 5
x 7
add to favorites
×
Save as Personal and add changes to this tab that will be seen only by you. Learn more ›
×
You can save this tab as Personal to edit and correct it or add notes. All changes will be seen only by you. Learn more »
launch autoscroll
font size
0
reset
how to read this tab
guitar tuner
edit
Autoscroll
slow
fast
+/-
esc
set tempo
stop
Band: Hellyeah
Album: Hellyeah
Tuning: Drop B (B,F#,B,E,G#,C#)

Intro:*PLAY 6 TIMES*
|--------------------------------------------------------------------|
|--------------------------------------------------------------------|
|--------------------------------------------------------------------|
|--------------------------------------------------------------------|
|--------------------------------------------------------------------|
|0-0-0-0-3h4h5-3h4h5-0-0-3h4h5-3h4h5-0-0-3h4h5-0-0-3h4h5-3h4h5-0-0---|

|------------------|
|------------------|
|------------------|
|------------------|
|------------------|
|3h4h5-3h4h5-3h4h5-|

Verse:*PLAY 4 TIMES*
|--------------------------------------------------------------------|
|--------------------------------------------------------------------|
|--------------------------------------------------------------------|
|--------------------------------------------------------------------|
|--------------------------------------------------------------------|
|0-0-0-0-3h4h5-3h4h5-0-0-3h4h5-3h4h5-0-0-3h4h5-0-0-3h4h5-3h4h5-0-0---|

|------------------|
|------------------|
|------------------|
|------------------|
|------------------|
|3h4h5-3h4h5-3h4h5-|

Chorus:
|-------------------------------------------------|
|-------------------------------------------------|
|-------------------------------------------------|
|-------------------------------------------------|
|-0-0-0--0-0-0--2--0-0-0--0-0-0--2----------------|
|-0-0-0--0-0-0--2--0-0-0--0-0-0--2--5p4p3-5p4p3-5-|

|--------------------------------------------------|
|--------------------------------------------------|
|--------------------------------------------------|
|--------------------------------------------------|
|-0-0-0--0-0-0--2--0-0-0--0-0-0--2-----------------|
|-0-0-0--0-0-0--2--0-0-0--0-0-0--2--5p4p3-4p3p2-5--|

Interlude 1:*PLAY 2 TIMES*
|--------------------------------------------------------------------|
|--------------------------------------------------------------------|
|--------------------------------------------------------------------|
|--------------------------------------------------------------------|
|--------------------------------------------------------------------|
|0-0-0-0-3h4h5-3h4h5-0-0-3h4h5-3h4h5-0-0-3h4h5-0-0-3h4h5-3h4h5-0-0---|

|------------------|
|------------------|
|------------------|
|------------------|
|------------------|
|3h4h5-3h4h5-3h4h5-|

Verse 2:*PLAY 4 TIMES*
|--------------------------------------------------------------------|
|--------------------------------------------------------------------|
|--------------------------------------------------------------------|
|--------------------------------------------------------------------|
|--------------------------------------------------------------------|
|0-0-0-0-3h4h5-3h4h5-0-0-3h4h5-3h4h5-0-0-3h4h5-0-0-3h4h5-3h4h5-0-0---|

|------------------|
|------------------|
|------------------|
|------------------|
|------------------|
|3h4h5-3h4h5-3h4h5-|

Chorus 2:
|-------------------------------------------------|
|-------------------------------------------------|
|-------------------------------------------------|
|-------------------------------------------------|
|-0-0-0--0-0-0--2~-0-0-0--0-0-0--2~---------------|
|-0-0-0--0-0-0--2~-0-0-0--0-0-0--2~-5p4p3-5p4p3-5-|

|--------------------------------------------------|
|--------------------------------------------------|
|--------------------------------------------------|
|--------------------------------------------------|
|-0-0-0--0-0-0--2~-0-0-0--0-0-0--2~----------------|
|-0-0-0--0-0-0--2~-0-0-0--0-0-0--2~-5p4p3-4p3p2-5--|
                                    |-----4x-----|

Interlude 2:*PLAY 4 TIMES*
|---------------------------------------------------------------------|
|---------------------------------------------------------------------|
|---------------------------------------------------------------------|
|---------------------------------------------------------------------|
|---------------------------------------------------------------------|
|12-12-12-12-0-12-12-12-12-0-12-12-0-12-12-12-12-0-1-0-3-0-4-0-3-0-1-0|

Verse 3:*PLAY 4 TIMES*
|---------------------------------------------------------------------|
|---------------------------------------------------------------------|
|---------------------------------------------------------------------|
|---------------------------------------------------------------------|
|---------------------------------------------------------------------|
|12-12-12-12-0-12-12-12-12-0-12-12-0-12-12-12-12-0-1-0-3-0-4-0-3-0-1-0|

Solo Rhythm:*PLAY 4 TIMES*
|---------------------------------------------------------------------|
|---------------------------------------------------------------------|
|---------------------------------------------------------------------|
|---------------------------------------------------------------------|
|---------------------------------------------------------------------|
|12-12-12-12-0-12-12-12-12-0-12-12-0-12-12-12-12-0-1-0-3-0-4-0-3-0-1-0|

Solo:
|--------------------------------------------------------------------------|
|--------------------------------------------------------------------------|
|--------------------------------------9----9----9--9-11p10p9--9-----------|
|9-11p9--9-11p9---------------------11-9-11-9-11-9--9-11p10p9----11-9------|
|------11-------9-7-5---7-5-7/9\7---11---11---11----------------------11-9-|
|--------------------------------------------------------------------------|

|---------------------------------------------------------------------|
|--------------------------------------------------9^--------9/11-11--|
|-------------------------------------9h11p9---9h11--11p9----9/11-11--|
|-------------------------------------------11-----------11~----------|
|7-4~--4-7-4-0/\-0h2p0~-2h4p2~-4h7p4~---------------------------------|
|---------------------------------------------------------------------|

|-------------------------------------------------------------------|
|11-11-11-11-11-11-11-11-11-11-11-11-11-11-11-11-11-11-11\9-9-/\----|
|11-11-11-11-11-11-11-11-11-11-11-11-11-11-11-11-11-11-11\9-9/--\---|
|-------------------------------------------------------------------|
|-------------------------------------------------------------------|
|-------------------------------------------------------------------|

Bridge:
|--------------------------------------------------------------------------|
|--------------------------------------------------------------------------|
|--------------------------------------------------------------------------|
|--------------------------------------------------------------------------|
|--------------------------------------------------------------------------|
|3h4h5-3h4h5--3h4h5-3h4h5-3h4h5--3h4h5-3h4h5-3h4h5--3h4h5-3h4h5-3h4h5-3h4h5|

Chorus 3:
|-------------------------------------------------|
|-------------------------------------------------|
|-------------------------------------------------|
|-------------------------------------------------|
|-0-0-0--0-0-0--2~-0-0-0--0-0-0--2~---------------|
|-0-0-0--0-0-0--2~-0-0-0--0-0-0--2~-5p4p3-5p4p3-5-|

|--------------------------------------------------|
|--------------------------------------------------|
|--------------------------------------------------|
|--------------------------------------------------|
|-0-0-0--0-0-0--2~-0-0-0--0-0-0--2~----------------|
|-0-0-0--0-0-0--2~-0-0-0--0-0-0--2~-5p4p3-4p3p2-5--|

Chorus 4:
|-------------------------------------------------|
|-------------------------------------------------|
|-------------------------------------------------|
|-------------------------------------------------|
|-0-0-0--0-0-0--2~-0-0-0--0-0-0--2~---------------|
|-0-0-0--0-0-0--2~-0-0-0--0-0-0--2~-5p4p3-5p4p3-5-|

|--------------------------------------------------|
|--------------------------------------------------|
|--------------------------------------------------|
|--------------------------------------------------|
|-0-0-0--0-0-0--2~-0-0-0--0-0-0--2~----------------|
|-0-0-0--0-0-0--2~-0-0-0--0-0-0--2~-5p4p3-4p3p2-5--|
                                    |-----4x-----|

Outro:
|-------------------------------------------------|
|-------------------------------------------------|
|-------------------------------------------------|
|-------------------------------------------------|
|-------------------------------------------------|
|0-0-0-0-3h4h5-3h4h5-0-0-3h4h5-3h4h5-0-0-3h4h5----|
Suggest correction
Creating personal tab
Creating personal tab
You can edit any tab online and save it as your Personal.

You can edit, replace or remove any tab part or add personal notes – all changes will be seen only by you.

Personal tabs can be accessed anytime from any device, even offline.
Learn more »
comments
print report bad tab
3 comments total.
-1 reply
goddamn_people3 10 Jan 11, 2008 09:07 AM

WRONG!

-1 reply
goddamn_people3 10 Jan 11, 2008 09:08 AM

the tuning is A# F A# D# G C

+1 reply
Audio_bully 10 Jan 25, 2008 04:13 PM

well, the rythm for the intr is not
0--0--0--0--3-4-5-0--0--3-4-5-0--0--3-4-5
|--------------------------|
Its not this the whole time
and as for the tuning u might be right but i dont have my guitar with me. so other than that, its an ok tab

guest
You may want to rate the tab now too:
select rating
Wanna post a correction for this tab? Suggest correction