Oops, an error
Loading. Please wait.

One Thing tab

version 1
version 1

Whole song

Interactive

2,012 views 3 this week
3 commentsread comments
1 2 3 4 5
2 more votes to show rating
add to favorites
×
Save as Personal and add changes to this tab that will be seen only by you. Learn more ›
×
You can save this tab as Personal to edit and correct it or add notes. All changes will be seen only by you. Learn more »
launch autoscroll
font size
0
reset
how to read this tab
guitar tuner
edit
Autoscroll
slow
fast
+/-
esc
set tempo
stop
Author
Difficulty
This song is tuned way down to Drop A#

c--------|
g--------|
d#-------|
a#-------|
f--------|
a#--12/--|

Verses

c--------------------------------------|
g--------------------------------------|
d#-------------------------------------|
a#-------------------------------------|
f-----------------------------------3--|
a#--0-0-6-0-6-0-00-6-0-0-6-0-6-0-00----|  Repeats 10X

c---4444444444444444-|
g---3333333333333333-|
d#--1111111111111111
a#------------------|
f-------------------|  This Chord comes in the left side after the main riff
a#------------------|                      plays 4X.

Chorus

c----------------------------------|
g----------------------------------|
d#--------------------5-------777--|
a#--0-2-3-0-6-5-0-2-3-5-0-2-3-777--|
f---0-2-3-0-6-5-0-2-3-3-0-2-3-555--|
a#--0-2-3-0-6-5-0-2-3---0-2-3------|

Interlude

c-------------------------------------|
g-------------------------------------|
d#------------------------------------|
a#--55555555555555574444444511110000--|
f---55555555555555574444444511110000--|   This is the rythme part.
a#--55555555555555574444444511110000--|  It's pretty much all chugs.

This is the high guitar work in the interlude part

c---------------------------5555----------------------------------|
g---888888888888888888888888----77777777777788884444444433333333--|
d#----------------------------------------------------------------|
a#----------------------------------------------------------------|
f-----------------------------------------------------------------|
a#----------------------------------------------------------------|
                           (10)
c-----------777777777777777710101010101010109999999999999999999999999999\--|
g---88888888---------------------------------------------------------------|
d#-------------------------------------------------------------------------|
a#-------------------------------------------------------------------------|
f--------------------------------------------------------------------------|
a#-------------------------------------------------------------------------|

c------10-----------------------------------------7^^^^---|
g---8-----8-----------------------8^^^^^----------7^^^^---|
d#-------------7^^^^5h7-57875787577^^^^^5787578757--------|
a#--5-------5---------------------5^^^^^------------------|
f---------------------------------------------------------|
a#--------------------------------------------------------|

c-------------8^^^^^^----------14^^^^^^-----------11-10-11^^^^10p8h10^^^--|
g-------------8^^^^^^----------15^^^^^^-----------------------------------|
d#--5787578757-------5787578757-------------------------------------------|
a#-------------------------------------5-8-7-5-6-5------------------------|
f-------------------------------------------------------------------------|
a#------------------------------------------------------------------------|

This is the waivering
unison bend I transposed
the notes the g string
roughly hits.
    (15th fret)
c---15151515151515151515151515151515------|
g---18-18-/19 19 19 18 19 19 19 19 19^^---|
d#----------------------------------------|
a#----------------------------------------|
f-----------------------------------------|
a#----------------------------------------|

c---------------------------------------------------|
g---/151515151212141414141010121212128899997788888--|
d#--------------------------------------------------|
a#--------------------------------------------------|
f---------------------------------------------------|
a#--------------------------------------------------|

c---------------------------------------(10^^^^)--|
g---7p6p3h7p6p3h7p6p3h7p6p3h7p6p3h7p6p3-----------|
d#------------------------------------------------|
a#------------------------------------------------|
f-------------------------------------------------|
a#------------------------------------------------|

Transistion to the main riff.

c--------------------------------------|
g--------------------------------------|
d#-------------------------------------|
a#-------------------------------------|
f--------------------------------------|
a#--00-000-000-000-000-000-000-00012\--|

End riff

c----------------------|
g----------------------|
d#--7----5-------------|
a#--7-6--5-5-----------|
f---5-6--3-5-----------|
a#----6----5----00000--|

            
            
Suggest correction
Creating personal tab
Creating personal tab
You can edit any tab online and save it as your Personal.

You can edit, replace or remove any tab part or add personal notes – all changes will be seen only by you.

Personal tabs can be accessed anytime from any device, even offline.
Learn more »
Give kudos to tab author, rate the tab!
1 2 3 4 5
comments
print report bad tab
3 comments total.
0 reply
goddamn_people3 10 Jan 15, 2008 06:32 AM

|----------------------------------------------------------------|
|---------------------------------------------------
-------------|
|----------------------------------------------------------------|
|-----------------------------------
-----------------------------|
|------6---6------6-----6---6------10----------------------------|
|--0-0-6-0-6-0-00-6-
0-0-6-0-6-0-00-10----------------------------|

in my opinion this kinda sounds better.

0 reply
goddamn_people3 10 Jan 15, 2008 06:34 AM

i f***ed it up
what i meant was make those 6's into chords on the A# and f strings and end with 10 on the A# and F
strings.

0 reply
zerstören 51 Feb 05, 2008 12:34 PM

excellent tab good job dude ;)

guest
You may want to rate the tab now too:
select rating
Wanna post a correction for this tab? Suggest correction