Oops, an error
Loading. Please wait.

Rotten To The Core intro tab

version 1
version 1

Intro

Whole song

Interactive

882 views 3 this week
5 commentsread comments
1 2 3 4 5
2 more votes to show rating
add to favorites
×
Save as Personal and add changes to this tab that will be seen only by you. Learn more ›
×
You can save this tab as Personal to edit and correct it or add notes. All changes will be seen only by you. Learn more »
launch autoscroll
font size
0
reset
how to read this tab
guitar tuner
edit
Autoscroll
slow
fast
+/-
esc
set tempo
stop
Difficulty
E|---------------------|------------------|
B|---------------------|------------------|
G|---------------------|------------------|
D|-0-1-3--0-1-3-1-0-1-3|-0-1-3-1-0-1-3----|
A|-0-1-3--0-1-3-1-0-1-3|-0-1-3-1-0-1-3----|
D|-0-1-3--0-1-3-1-0-1-3|-0-1-3-1-0-1-3----|

E|---------------------|------------------|
B|---------------------|------------------|
G|---------------------|------------------|
D|-0-1-3-1-0-1-3-------|-0-1-3-1-0-1-3----|  x4
A|-0-1-3-1-0-1-3-------|-0-1-3-1-0-1-3----|
D|-0-1-3-1-0-1-3-------|-0-1-3-1-0-1-3----|

            
            
Suggest correction
Creating personal tab
Creating personal tab
You can edit any tab online and save it as your Personal.

You can edit, replace or remove any tab part or add personal notes – all changes will be seen only by you.

Personal tabs can be accessed anytime from any device, even offline.
Learn more »
Give kudos to tab author, rate the tab!
1 2 3 4 5
comments
print report bad tab
5 comments total. Showing first comments.
0 reply
myXdefeatism 10 Nov 19, 2007 03:57 PM

ah sweet. this is exactly the part of the song i wanted to learn. thanks bro.

0 reply
myXdefeatism 10 Nov 19, 2007 04:00 PM

wait, shit. i wanted the "break down" part. oh well. better than nothing.

0 reply
Annihalation666 10 Aug 11, 2010 11:22 AM

the song is in Standard E tuning...
intro goes like this
E|---------|------x3-------|------------|
B|---------|---------------|------------|
G|-5-----7-|--9----9-------|------------|
D|-5--5--7-|--9----9----8--|-8-8/--3--5-|
A|-3--5--5-|--7----7----8--|-8-8/--3--5-|
E|----3----|---000--000-6--|-6-6/--1--3-|
*** ***
^^^^^^^^^^ ^^^
do this three times before going on to here

guest
Wanna post a correction for this tab? Suggest correction