Oops, an error
Loading. Please wait.

Thank You tab

version 2
version 2

Whole song

Interactive

4,768 views 3 this week
no commentswrite comment
1 2 3 4 5
2 more votes to show rating
add to favorites
×
Save as Personal and add changes to this tab that will be seen only by you. Learn more ›
×
You can save this tab as Personal to edit and correct it or add notes. All changes will be seen only by you. Learn more »
launch autoscroll
font size
0
reset
how to read this tab
guitar tuner
edit
Autoscroll
slow
fast
+/-
esc
set tempo
stop
Author
----------------------------------------------------------------------------
                         THANK YOU - HELLYEAH
----------------------------------------------------------------------------


Tabbed by: BC
Email: Dribble190@yahoo.com

I pieced this tab together from other tabs and added some stuff I didn't see. Hopefully 
close to correct. This is the first time I have tabbed something out so let me know what 
think.

Tuning:Bb,F,Bb,Eb,G,C


Intro/Verse
C |----------------------------------------------------------------------|
G |---------------------------------------------------------3---2--------|
Eb|-------------------------------------2-------0-------2-----2---2------|
Bb|--------5--4--4-----4--2--0-------4----4---4---4---4------------------| 4X
F |-------------------------------2---------2-------0--------------------|
Bb|---0h2-----------0~---------------------------------------------------|

Pre-chorus
C |----------------------------------------------------------------------|
G |----------------------------------------------------------------------|
Eb|----------------------------------------------------------------------|
Bb|---5-----/7------5------5-----7---------------------------------------|
F |---5-8x--/7-6x-----5----5-8x--7---------------------------------------|
Bb|---5-----/7-------------5-----7---------------------------------------|

Chorus
C |----------------------------------------------------------------------|
G |----------------------------------------------------------------------|
Eb|-----------4--4---4-4-444---------------------------------------------|
Bb|--5-4-2-0--4--4---4-4-444--5--5---5-5-555---2x-2x--2---2x-2x--2---0---| 2X
F |-----------2--2---2-2-222--5--5---5-5-555---2x-2x--2---2x-2x--2---0---|
Bb|---------------------------5--5---5-5-555---2x-2x--2---2x-2x--2---0---|

Intro/Verse 3X
Pre-Chorus
Chorus 2X

Bridge
Not 100% sure on this part but here is what I Play for rythem
C |----------------------------------------------------------------------|
G |----------------------------------------------------------------------|
Eb|------0-------0--------0-------2--------------------------------------|
Bb|----4---4---4---4----4---4---4---4------------------------------------| 5X
F |--0-------0--------2-------2------------------------------------------|
EB|----------------------------------------------------------------------|

C |------------------------------------------------------------------------|
G |------------------------------------------------------------------------|
Eb|-------------------7--7---7x-7x--7--------------------------------------|
Bb|-2--2---2x-2x--2---7--7---7x-7x--7---9--9---9x-9x--9---7--7---7x-7x--7--| 2X
F |-2--2---2x-2x--2---5--5---5x-5x--5---9--9---9x-9x--9---7--7---7x-7x--7--|
Eb|-2--2---2x-2x--2---------------------9--9---9x-9x--9---7--7---7x-7x--7--|

Don't have the solo if anyone does email me

Pre-chorus
Chorus 4X

Outro
C |----------------------------------------------------------------------|
G |----------------------------------------------------------------------|
Eb|----------------------------------------------------------------------|
Bb|---------5--4--4--6X-------------------5--4---4----5------------------|
F |----------------------------------------------------------------------|
Bb|--0h2---------------------------0h2-----------------------------------|

That's pretty much the rythem if anyone has the lead email me. Hope this works out for 
it sounds good to me.


| /  slide up
| \  slide down
| h  hammer-on
| p  pull-off
| ~  vibrato
| +  harmonic
| x  Mute note

            
            
Suggest correction
Creating personal tab
Creating personal tab
You can edit any tab online and save it as your Personal.

You can edit, replace or remove any tab part or add personal notes – all changes will be seen only by you.

Personal tabs can be accessed anytime from any device, even offline.
Learn more »
Give kudos to tab author, rate the tab!
1 2 3 4 5
comments
print report bad tab
guest
You may want to rate the tab now too:
select rating
Wanna post a correction for this tab? Suggest correction