Oops, an error
Loading. Please wait.
We have an official Unsung tab made by UG professional guitarists. Check out the tab »
×
by Helmet
43,352 views 27 this week
14 commentsread comments
1 2 3 4 5
x 33
add to favorites
×
Save as Personal and add changes to this tab that will be seen only by you. Learn more ›
×
You can save this tab as Personal to edit and correct it or add notes. All changes will be seen only by you. Learn more »
launch autoscroll
font size
0
reset
how to read this tab
guitar tuner
backing track
0:00
0:00
edit
Autoscroll
slow
fast
+/-
esc
set tempo
stop
Drop D Tuning – D, A, D, G, B, E

[Intro]
E|------|-----------------|-----------------|-----|
B|-BASS-|-----------------|-----------------|-----|
G|------|-----------------|-----------------|-----|
D|------|-2-2-2-3-3-3-5-5-|-2-2-2-3-3-3-5-5-|-0~~-|
A|-ONLY-|-2-2-2-3-3-3-5-5-|-2-2-2-3-3-3-5-5-|-0~~-|
D|------|-2-2-2-3-3-3-5-5-|-2-2-2-3-3-3-5-5-|-0~~-|

| G 1  | Play x 4 (w/PM) | Play x 6        |
E|------|-----------------|---------3~~-----|-----|
B|------|-----------------|-5~~-0---3~~-----|-----|
G|------|-----------------|---------0~~-----|-----|
D|------|-----------------|---------0~~-----|-0~~-|
A|------|-----------------|-----------------|-0~~-|
D|------|-----------------|-----------------|-0~~-|
(Guitar 2)

[Verse]
E|--------------------------------------------|
B|--------------------------------------------|
G|--------------------------------------------|
D|-2-2-2--2-0-2--2-2-2--2-0-2-2-2-2-3-3-3-5-5-|
A|-2-2-2--2-0-2--2-2-2--2-0-2-2-2-2-3-3-3-5-5-|
D|-2-2-2--2-0-2--2-2-2--2-0-2-2-2-2-3-3-3-5-5-|
(Play x6)

[Chorus]
E|-----------------------------------------------------------------|
B|-----------------------------------------------------------------|
G|-----------------------------------------------------------------|
D|-0-0-0-0-0-0-0-0-0-0-0-0-0-0-0-0-2-2-2-2-2-2-2-2-2-2-2-2-2-2-2-2-|
A|-0-0-0-0-0-0-0-0-0-0-0-0-0-0-0-0-2-2-2-2-2-2-2-2-2-2-2-2-2-2-2-2-|
D|-0-0-0-0-0-0-0-0-0-0-0-0-0-0-0-0-2-2-2-2-2-2-2-2-2-2-2-2-2-2-2-2-|
(Play x2)

E|-----------------------------------------------------|
B|-----------------------------------------------------|
G|-----------------------------------------------------|
D|-10-10-10-10-10-10-10-10-10-10-10-10-7-7-7-7-7-7-7-7-|
A|-10-10-10-10-10-10-10-10-10-10-10-10-7-7-7-7-7-7-7-7-|
D|-10-10-10-10-10-10-10-10-10-10-10-10-7-7-7-7-7-7-7-7-|

[Post-Chorus]
E|----------------------|
B|----------------------|
G|----------------------|
D|-0---2-0-2--0---2-2-2-|
A|-0---2-0-2--0---2-2-2-|
D|-0---2-0-2--0---2-2-2-|

E|--------------------------------------------|
B|--------------------------------------------|
G|--------------------------------------------|
D|-2-2-2--2-0-2--2-2-2--2-0-2-2-2-2-3-3-3-5-5-|
A|-2-2-2--2-0-2--2-2-2--2-0-2-2-2-2-3-3-3-5-5-|
D|-2-2-2--2-0-2--2-2-2--2-0-2-2-2-2-3-3-3-5-5-|
(Play x6)

E|-----------------------------------------------------------------|
B|-----------------------------------------------------------------|
G|-----------------------------------------------------------------|
D|-0-0-0-0-0-0-0-0-0-0-0-0-0-0-0-0-2-2-2-2-2-2-2-2-2-2-2-2-2-2-2-2-|
A|-0-0-0-0-0-0-0-0-0-0-0-0-0-0-0-0-2-2-2-2-2-2-2-2-2-2-2-2-2-2-2-2-|
D|-0-0-0-0-0-0-0-0-0-0-0-0-0-0-0-0-2-2-2-2-2-2-2-2-2-2-2-2-2-2-2-2-|

E|-----------------------------------------------------------------------|
B|-----------------------------------------------------------------------|
G|-----------------------------------------------------------------------|
D|-10-10-10-10-10-10-10-10-10-10-10-10-7-7-7-7-7-7-7-7-10-10-10-10-10-10-|
A|-10-10-10-10-10-10-10-10-10-10-10-10-7-7-7-7-7-7-7-7-10-10-10-10-10-10-|
D|-10-10-10-10-10-10-10-10-10-10-10-10-7-7-7-7-7-7-7-7-10-10-10-10-10-10-|

E|-----------------------------------------------------------------------|
B|-----------------------------------------------------------------------|
G|-----------------------------------------------------------------------|
D|-10-10-0-0-0-0-0-0-0-0-0-0-0-0-0-0-0-0-2-2-2-2-2-2-2-2-2-2-2-2-2-2-2-2-|
A|-10-10-0-0-0-0-0-0-0-0-0-0-0-0-0-0-0-0-2-2-2-2-2-2-2-2-2-2-2-2-2-2-2-2-|
D|-10-10-0-0-0-0-0-0-0-0-0-0-0-0-0-0-0-0-2-2-2-2-2-2-2-2-2-2-2-2-2-2-2-2-|

E|----------------------------------------------------------|
B|----------------------------------------------------------|
G|----------------------------------------------------------|
D|-3-3-3-3-3-3-3-3-3-3-3-3-3-3-3-3-/12-12-12-12-12-12-12-12-|
A|-3-3-3-3-3-3-3-3-3-3-3-3-3-3-3-3-/12-12-12-12-12-12-12-12-|
D|-3-3-3-3-3-3-3-3-3-3-3-3-3-3-3-3-/12-12-12-12-12-12-12-12-|

(Middle 8)
E|-------------------------------------------------------------------|
B|-------------------------------------------------------------------|
G|-------------------------------------------------------------------|
D|-5h7-7-7-5h7-7-7-5h7-7-7-5h7-7-7-5h7-7-7-5h7-7-7-5h7-7-7-5h7-7-7-8-|
A|-5h7-7-7-5h7-7-7-5h7-7-7-5h7-7-7-5h7-7-7-5h7-7-7-5h7-7-7-5h7-7-7-8-|
D|-5h7-7-7-5h7-7-7-5h7-7-7-5h7-7-7-5h7-7-7-5h7-7-7-5h7-7-7-5h7-7-7-8-|
(Play x2)

E|-------------|
B|-------------|
G|-------------|
D|-0-0-2-0-2-3-|
A|-0-0-2-0-2-3-|
D|-0-0-2-0-2-3-|

E|-------------------------------------------------------------------|
B|-------------------------------------------------------------------|
G|-------------------------------------------------------------------|
D|-5h7-7-7-5h7-7-7-5h7-7-7-5h7-7-7-5h7-7-7-5h7-7-7-5h7-7-7-5h7-7-7-8-|
A|-5h7-7-7-5h7-7-7-5h7-7-7-5h7-7-7-5h7-7-7-5h7-7-7-5h7-7-7-5h7-7-7-8-|
D|-5h7-7-7-5h7-7-7-5h7-7-7-5h7-7-7-5h7-7-7-5h7-7-7-5h7-7-7-5h7-7-7-8-|

(Guitar 1)
E|-5-5-5-5-5-5-5-5-5-5-5-5-5-5-5-5-5-5-5-5-5-5-5-5-5-5-5-5-5-5-5-5-5-|
B|-5-5-5-5-5-5-5-5-5-5-5-5-5-5-5-5-5-5-5-5-5-5-5-5-5-5-5-5-5-5-5-5-5-|
G|-0-0-0-0-0-0-0-0-0-0-0-0-0-0-0-0-0-0-0-0-0-0-0-0-0-0-0-0-0-0-0-0-0-|
D|-7-7-7-7-7-7-7-7-7-7-7-7-7-7-7-7-7-7-7-7-7-7-7-7-7-7-7-7-7-7-7-7-7-|
A|-0-0-0-0-0-0-0-0-0-0-0-0-0-0-0-0-0-0-0-0-0-0-0-0-0-0-0-0-0-0-0-0-0-|
D|-------------------------------------------------------------------|

(Guitar 2)
(Play x2)
E|-------------|
B|-------------|
G|-------------|
D|-0-0-2-0-2-3-|
A|-0-0-2-0-2-3-|
D|-0-0-2-0-2-3-|

E|-------------------------------------------------------------------|
B|-------------------------------------------------------------------|
G|-------------------------------------------------------------------|
D|-5h7-7-7-5h7-7-7-5h7-7-7-5h7-7-7-5h7-7-7-5h7-7-7-5h7-7-7-5h7-7-7-8-|
A|-5h7-7-7-5h7-7-7-5h7-7-7-5h7-7-7-5h7-7-7-5h7-7-7-5h7-7-7-5h7-7-7-8-|
D|-5h7-7-7-5h7-7-7-5h7-7-7-5h7-7-7-5h7-7-7-5h7-7-7-5h7-7-7-5h7-7-7-8-|

(Guitar 1)
E|-5-5-5-5-5-5-5-5-5-5-5-5-5-5-5-5-5-5-5-5-5-5-5-5-5-5-5-5-5-5-5-5-5-|
B|-5-5-5-5-5-5-5-5-5-5-5-5-5-5-5-5-5-5-5-5-5-5-5-5-5-5-5-5-5-5-5-5-5-|
G|-0-0-0-0-0-0-0-0-0-0-0-0-0-0-0-0-0-0-0-0-0-0-0-0-0-0-0-0-0-0-0-0-0-|
D|-7-7-7-7-7-7-7-7-7-7-7-7-7-7-7-7-7-7-7-7-7-7-7-7-7-7-7-7-7-7-7-7-7-|
A|-0-0-0-0-0-0-0-0-0-0-0-0-0-0-0-0-0-0-0-0-0-0-0-0-0-0-0-0-0-0-0-0-0-|
D|-------------------------------------------------------------------|

E|-----------------------------------------------------|
B|-----------------------------------------------------|
G|-----------------------------------------------------|
D|-0-0-2-0-2-3--0-0-2-0-2-3--0-0-2-0-2-3--0-0-2-0-3-/5-|
A|-0-0-2-0-2-3--0-0-2-0-2-3--0-0-2-0-2-3--0-0-2-0-3-/5-|
D|-0-0-2-0-2-3--0-0-2-0-2-3--0-0-2-0-2-3--0-0-2-0-3-/5-|
(Play x4)

[Outro]
E|-------|-3-3-3-3-3-3-3-3-3-3-3-3-3-3-3-3-1-1-1-1-1-1-1-1-1-1-1-1-1-1-1-1-|
B|-------|-3-3-3-3-3-3-3-3-3-3-3-3-3-3-3-3-1-1-1-1-1-1-1-1-1-1-1-1-1-1-1-1-|
G|-------|-0-0-0-0-0-0-0-0-0-0-0-0-0-0-0-0-0-0-0-0-0-0-0-0-0-0-0-0-0-0-0-0-|
D|-0---2-|-5-5-5-5-5-5-5-5-5-5-5-5-5-5-5-5-3-3-3-3-3-3-3-3-3-3-3-3-3-3-3-3-|
A|-0---2-|-----------------------------------------------------------------|
D|-0---2-|-----------------------------------------------------------------|

E|-3-3-3-3-3-3-3-3-3-3-3-3-3-3-3-3-3-3-3-3-3-3-3-3-3-3-3-3-3-3-3-3-|
B|-3-3-3-3-3-3-3-3-3-3-3-3-3-3-3-3-3-3-3-3-3-3-3-3-3-3-3-3-3-3-3-3-|
G|-0-0-0-0-0-0-0-0-0-0-0-0-0-0-0-0-0-0-0-0-0-0-0-0-0-0-0-0-0-0-0-0-|
D|-5-5-5-5-5-5-5-5-5-5-5-5-5-5-5-5-5-5-5-5-5-5-5-5-5-5-5-5-5-5-5-5-|
A|-----------------------------------------------------------------|
D|-----------------------------------------------------------------|

E|-1-1-1-1-1-1-1-1-1-1-1-1-1-1-1-1-/10-10-10-10-10-10-10-10-10-10-10-10-10-|
B|-1-1-1-1-1-1-1-1-1-1-1-1-1-1-1-1-/10-10-10-10-10-10-10-10-10-10-10-10-10-|
G|-0-0-0-0-0-0-0-0-0-0-0-0-0-0-0-0--0--0--0--0--0--0--0--0--0--0--0--0--0--|
D|-3-3-3-3-3-3-3-3-3-3-3-3-3-3-3-3-/12-12-12-12-12-12-12-12-12-12-12-12-12-|
A|-------------------------------------------------------------------------|
D|-------------------------------------------------------------------------|

E|-5-5-5-5-5-5-5-5-5-5-5-5-5-5-5-5-5-5-5-5-5-5-5-5-5-5-5-5-5-5-5-5-|
B|-5-5-5-5-5-5-5-5-5-5-5-5-5-5-5-5-5-5-5-5-5-5-5-5-5-5-5-5-5-5-5-5-|
G|-0-0-0-0-0-0-0-0-0-0-0-0-0-0-0-0-0-0-0-0-0-0-0-0-0-0-0-0-0-0-0-0-|
D|-7-7-7-7-7-7-7-7-7-7-7-7-7-7-7-7-7-7-7-7-7-7-7-7-7-7-7-7-7-7-7-7-|
A|-0-0-0-0-0-0-0-0-0-0-0-0-0-0-0-0-0-0-0-0-0-0-0-0-0-0-0-0-0-0-0-0-|
D|-----------------------------------------------------------------|

E|-5-5-5-5-5-5-5-5-5-5-5-5-5-5-5-5-------------|
B|-5-5-5-5-5-5-5-5-5-5-5-5-5-5-5-5-------------|
G|-0-0-0-0-0-0-0-0-0-0-0-0-0-0-0-0-------------|
D|-7-7-7-7-7-7-7-7-7-7-7-7-7-7-7-7-2-0-2-0-2-3-|
A|-0-0-0-0-0-0-0-0-0-0-0-0-0-0-0-0-2-0-2-0-2-3-|
D|---------------------------------2-0-2-0-2-3-|



************************************

| ~   Vibrato
| PM  Palm mute
| /   Slide up
| h   Hammer-on
| BASS 
| ONLY 

************************************

            
            
Suggest correction
Creating personal tab
Creating personal tab
You can edit any tab online and save it as your Personal.

You can edit, replace or remove any tab part or add personal notes – all changes will be seen only by you.

Personal tabs can be accessed anytime from any device, even offline.
Learn more »
comments
print report bad tab
14 comments total. Showing first comments.
+1 reply
guitardude1039 10 Dec 13, 2006 03:15 PM

1 star! BAD! jp great tab!

+1 reply
tman4000 72 Dec 23, 2006 03:28 PM

yeah....dude.....

+1 reply
VanCamp 32 Jul 05, 2007 11:04 AM

Alright!Guitar Hero! No,I'm just kidding,GH sucks.Go real life!!

guest
Wanna post a correction for this tab? Suggest correction