Oops, an error
Loading. Please wait.

You Borrowed bass

version 1
version 1

Whole song

by Helmet
495 views 1 this week
1 commentread comment
1 2 3 4 5
3 more votes to show rating
add to favorites
×
Save as Personal and add changes to this tab that will be seen only by you. Learn more ›
×
You can save this tab as Personal to edit and correct it or add notes. All changes will be seen only by you. Learn more »
launch autoscroll
font size
0
reset
guitar tuner
edit
Autoscroll
slow
fast
+/-
esc
set tempo
stop
Author
Difficulty
You Borrowed - Helmet

Notes:
-I tabbed it by ear and it sounds accurate
-I don't know particular timing of the notes so just compare it to the song

=Intro=
G|---------------------------| Play x3
D|---------------------------|
A|---------------------------|
E|-0--8-0-7--9-9-4-0-4-5-----|

=Verse= 0:14
G|---------------------------| 
D|---------------------------|
A|---------------------------|
E|-0--2-2-2h3--0--2-2h3h4----|

=Bridge= 0:41
G|---------------------------| 
D|---------------------------|
A|---------------------------|
E|-0--8-0-7--9-9-4-0-4-5-----|

=Bridge= 0:54
G|---------------------------| 
D|---------------------------|
A|---------------------------|
E|-0--2-2-2h3--0--2-2h3h4----|

=Chorus= 1:03
G|---------------------------| 
D|---------------------------|
A|---------------------------|
E|-2-2h3--2-4-1---2-2h3--22--|

=Verse= 1:20
G|---------------------------| 
D|---------------------------|
A|---------------------------|
E|-0--2-2-2h3--0--2-2h3h4----|

=Bridge= 1:37
G|---------------------------| 
D|---------------------------|
A|---------------------------|
E|-0--8-0-7--9-9-4-0-4-5-----|

=Bridge= 1:50
G|---------------------------| 
D|---------------------------|
A|---------------------------|
E|-0--2-2-2h3--0--2-2h3h4----|

=Chorus= 1:59
G|---------------------------| 
D|---------------------------|
A|---------------------------|
E|-2-2h3--2-4-1---2-2h3--22--|

=Pre-Solo= 2:19
G|---------------------------|Let It Ring
D|---------------------------|
A|---------------------------|
E|-0-------------------------|

=Guitar Solo= 2:36
G|---------------------------| 
D|---------------------------|
A|---------------------------|
E|-0-0-2-3-4-3-2-------------|

=Outro= 3:09
G|---------------------------|Hold out until the end
D|---------------------------|
A|---------------------------|
E|-3-3-3-3-3-3-3-3-3-3-3-3-3-|




TABBED BY: dysDimmu
Suggest correction
Creating personal tab
Creating personal tab
You can edit any tab online and save it as your Personal.

You can edit, replace or remove any tab part or add personal notes – all changes will be seen only by you.

Personal tabs can be accessed anytime from any device, even offline.
Learn more »
Give kudos to tab author, rate the tab!
1 2 3 4 5
comments
print report bad tab
1 comment total.
0 reply
zakkbassist 409 Jul 24, 2015 02:28 PM

This is a good tab to get you on track, but it's not exactly right. The song is in Drop D, and a couple of notes are wrong in it. It's great for getting you close to what the song is.

guest
You may want to rate the tab now too:
select rating
Wanna post a correction for this tab? Suggest correction