Oops, an error
Loading. Please wait.

Remnants Of War tab

by Helstar
597 views 1 this week
no commentswrite comment
1 2 3 4 5
3 more votes to show rating
add to favorites
×
Save as Personal and add changes to this tab that will be seen only by you. Learn more ›
×
You can save this tab as Personal to edit and correct it or add notes. All changes will be seen only by you. Learn more »
launch autoscroll
font size
0
reset
how to read this tab
guitar tuner
edit
Autoscroll
slow
fast
+/-
esc
set tempo
stop
Author
Difficulty
Band:  Helstar
Album: Remnants Of War
Song:  Remnants Of War

Copyright (c)  (Combat) (1986)
Version 1.0 - (14/02/07)



.  - palm mute           /  - slide up to
\  - slide down to       ~  - vibrato
h  - hammer on           b  - Bend
p  - pull off            Suffixes for bend
t  - tap                 f  - full bend    h - half bend
ph - pinched harmonic    q  - quarter bend t - tap bend
*  - see comment         ^  - Hold bend    r release bend
x  - Stuccatto           ~  - vibrato bend
,  - slight palm mute    () - ghost note, sustained note
"  - tremolo note        <> - harmonic
pb - pre bend

Tuning E A D G B E

 Intro

           ~~~~~
|-------------------------------|
|-------------------------------|
|-------------------------------|
|-------9--(9)--\------3/5------|
|-2--2--7--(7)--\2--2--1/2-4/5--|
|-0--0-----------0--0------2/3--| Rpt 4 X

 [--PM--]          [--PM--]       [--PM--]          [-PM--]
|-------------------------------------------------------------------|
|-------------------------------------------------------------------|
|-------------------------------------------------------------------|
|---------9--(9)--\--------3/5-------------9--(9)--\--------2-------|
|---------7--(7)--\--------1/2-4/5---------7--(7)--\------2---3-2---|
|-0-0-0-0----------0-0-0-0-----2/3-0-0-0-0----------0-2-3---------3-|

 [--PM--]          [--PM--]       [--PM--]          
|--------------------------------------------------------------------|
|--------------------------------------------------------------------|
|--------------------------------------------------------------------|
|---------9---9---\---------3/5-------------9--(9)--\3--(3)-/5--/7---|
|---------7---7---\---------1/2-4/5---------7--(7)--\1--(1)-/3--/5---|
|-0-0-0-0-----------0-0-0-0-----2/3-0-0-0-0--------------------------|

 Rpt Above

 Main Riff

 [-PM--]     [--PM-]     [-PM--]
|----------------------------------------------|
|----------------------------------------------|
|----------------------------------------------|
|-------9p7-9-------9p7-9-------9p7-9---12\11--|
|-------7-7-7-------7-7-7-------7-7-7-8-10\9---|
|-0-0-0-------0-0-0-------0-0-0-------6--------|

 [-PM--]     [--PM-]     [-PM--]
|---------------------------------------------|
|---------------------------------------------|
|---------------------------------------------|
|-------9p7-9-------9p7-9-------9p7-9-----7---|
|-------7-7-7-------7-7-7-------7-7-7-8-9-5---|
|-0-0-0-------0-0-0-------0-0-0-------6-7-----|

 [-PM--]     [--PM-]     [-PM--]
|----------------------------------------------|
|----------------------------------------------|
|----------------------------------------------|
|-------9p7-9-------9p7-9-------9p7-9---12\11--|
|-------7-7-7-------7-7-7-------7-7-7-8-10\9---|
|-0-0-0-------0-0-0-------0-0-0-------6--------|

 Guitar 1
 [-PM--]     [--PM-]     [-PM--]           ~~~
[---------------------------------------------|
[---------------------------------------------|
[---------------------------------------------|
[-------9p7-9-------9p7-9-------9p7-9------8--|
[-------7-7-7-------7-7-7-------7-7-7/9-10----|
[-0-0-0-------0-0-0-------0-0-0---------------|
[Guitar 2
[[-PM--]     [--PM-]     [-PM--]
[---------------------------------------------|
[---------------------------------------------|
[---------------------------------------------|
[-------9p7-9-------9p7-9-------9p7-9------7--|
[-------7-7-7-------7-7-7-------7-7-7-8--9-5--|
[-0-0-0-------0-0-0-------0-0-0-------6--7----|

 Verse
 
 [-PM--]     [--PM-]     [-PM--]
|----------------------------------------------|
|----------------------------------------------|
|----------------------------------------------|
|-------9p7-9-------9p7-9-------9p7-9---12\11--|
|-------7-7-7-------7-7-7-------7-7-7-8-10\9---|
|-0-0-0-------0-0-0-------0-0-0-------6--------|

 [-PM--]     [--PM-]     [-PM--]
|---------------------------------------------|
|---------------------------------------------|
|---------------------------------------------|
|-------9p7-9-------9p7-9-------9p7-9-----7---|
|-------7-7-7-------7-7-7-------7-7-7-8-9-5---|
|-0-0-0-------0-0-0-------0-0-0-------6-7-----|

 [-PM--]     [--PM-]     [-PM--]
|----------------------------------------------|
|----------------------------------------------|
|----------------------------------------------|
|-------9p7-9-------9p7-9-------9p7-9---12\11--|
|-------7-7-7-------7-7-7-------7-7-7-8-10\9---|
|-0-0-0-------0-0-0-------0-0-0-------6--------|

 Guitar 1
 [-PM--]     [--PM-]     [-PM--]           ~~~
[---------------------------------------------|
[---------------------------------------------|
[---------------------------------------------|
[-------9p7-9-------9p7-9-------9p7-9------8--|
[-------7-7-7-------7-7-7-------7-7-7/9-10----|
[-0-0-0-------0-0-0-------0-0-0---------------|
[Guitar 2
[[-PM--]     [--PM-]     [-PM--]
[---------------------------------------------|
[---------------------------------------------|
[---------------------------------------------|
[-------9p7-9-------9p7-9-------9p7-9------7--|
[-------7-7-7-------7-7-7-------7-7-7-8--9-5--|
[-0-0-0-------0-0-0-------0-0-0-------6--7----|


|-----------------------------------|
|-----------------------------------|
|----------2-2-2-2-5-5-5-5/7-7/8-8--|
|-5-5-5-5--2-2-2-2-5-5-5-5/7-7/8-8--|
|-5-5-5-5--0-0-0-0-3-3-3-3/5-5/6-6--|
|-3-3-3-3---------------------------|

 Rpt Main Riff
 Rpt Verse

 Backing for solo
 [--PM--]          [--PM--]             
|-----------------------------------|
|-----------------------------------|
|-----------------------------------|
|---------9---9---\---------3/5-----|
|---------7---7---\---------1/2-4/5-|
|-0-0-0-0-----------0-0-0-0-----2/3-| Rpt

 [--PM--]          [--PM--]       [--PM--]          
|--------------------------------------------------------------------|
|--------------------------------------------------------------------|
|--------------------------------------------------------------------|
|---------9---9---\---------3/5-------------9--(9)--\3--(3)-/5--/7---|
|---------7---7---\---------1/2-4/5---------7--(7)--\1--(1)-/3--/5---|
|-0-0-0-0-----------0-0-0-0-----2/3-0-0-0-0--------------------------|


 Solo
      ~~~~~~~            ~~~~     [-PM-]               ~~~~
|---------------------------------------------------------------------|
|-9b------------------------------------------/10-9-/15fb----14-17p14-|
|-9b-9-------7---7\6------------------4-6-7-6-------------------------|
|--------------9-----9-7----------6-7---------------------------------|
|------------------------9---x\-/-------------------------------------|
|---------------------------------------------------------------------|

   ~~~~~~~~~
|------------------11-12p11-------11-12p11-------11-12p11--------|
|-16b--------12-13----------12-13----------12-13----------12-13--|
|----------------------------------------------------------------|
|----------------------------------------------------------------|
|----------------------------------------------------------------|
|----------------------------------------------------------------|

                     h  h     h  h     h  h
|-11-12p11-------11-12-14-11-12-14-11-12-14p12p12-14fb-14fb-\----|
|----------12-13-------------------------------------------------|
|----------------------------------------------------------------|
|----------------------------------------------------------------|
|----------------------------------------------------------------|
|----------------------------------------------------------------|

                                                                ~~~~
|----------------11-12-------------------------------------------------|
|----------7-9-b------------/11-14-------11/14p12----12----------------|
|-3/-8-6-8-------------11-13-------11-13----------14----14-11-11b----\-|
|----------------------------------------------------------------------|
|----------------------------------------------------------------------|
|----------------------------------------------------------------------|

          h      h           h        h        h    h           h
|------------16-17p16----------15p14-15----------15-17p15----------|
|------14-15----------15p14-15----------15p14-15----------15p14-15-|
|-/11--------------------------------------------------------------|
|------------------------------------------------------------------|
|------------------------------------------------------------------|
|------------------------------------------------------------------|

         h        h     h                      ph~~~
|-15p14-15----------15-17p15-15p14-----------------------|
|----------15p14-15----------------15-15p14\12-14--------|
|----------------------------------------------------x\--|
|----------------------------------------------------x\--|
|--------------------------------------------------------|
|--------------------------------------------------------|

     [------------PM----------------] ~~                 [PM]  [PM]
|-------------------------------------------------------------------|
|-------------------------------------------------------------------|
|-------------------------------------------------------------------|
|-------------9-10p9p7------9p7----------------------7-9-----10-----|
|-/7-7-7-9-10----------10p9-----10-6-7--\-3/6-7-9-10-----7-7----7-7-|
|-------------------------------------------------------------------|

 [--PM--]               h   h   h       ~~~~~~~~~
|-----------------------------------------------------------------|
|-----------------------------7-8p7---77---------55/8\55/7\44/5---|
|-------------------------7-9-------9---------------------------4-|
|-10p9p7-----------7-9-10-----------------------------------------|
|--------10-7-9-10------------------------------------------------|
|-----------------------------------------------------------------|

          ~~     h   h   h   h  ~~~~~~~~~~~~~~~~~~~~
|----------------------------------------------------|
|---4-5-6b---7-5-7p5-7p5-7p5-7p5---------------------|
|-5--------------------------------------------------|
|----------------------------------------------------|
|----------------------------------------------------|
|----------------------------------------------------|

 Rpt Verse and chorus

 Outro solo

                                             ~~~~~~~~~~          
|-17p15-------17p15-------17p15-------20fb----r-fb-----20fb--20-19--|
|-------17p15-------17p15-------17p15-------------------------------|
|-------------------------------------------------------------------|
|-------------------------------------------------------------------|
|-------------------------------------------------------------------|
|-------------------------------------------------------------------|

               h  h    h      ~~~~~~       h         ph
|-17-20p19p17-19-20-------------------------------------------------|
|-------------------15-16p15-15b----\----7-8p7-------7b-r-----------|
|-------------------------------------4/-------9-9p7-----7-7p6-7-9--|
|-------------------------------------------------------------------|
|-------------------------------------------------------------------|
|-------------------------------------------------------------------|

  ph~~~~                  pick scrape~~~~~~~~
|-------------------------------------------------------------------|
|-----------------------------------15b------15fb\-17-19-20p19-17---|
|-7-----7p6---6-----------------------------------------------------|
|-----------9---9p7----------\-\------------------------------------|
|-------------------7b-----r--\-\-----------------------------------|
|-------------------------------------------------------------------|

                                                        ph~~
|------------------------------------------------------------|
|-20p19p17-19p17----17-19-20-19-17----------------------14---|
|----------------19----------------19-18p16p14-16p14p13------|
|------------------------------------------------------------|
|------------------------------------------------------------|
|------------------------------------------------------------|


                           ph  ~~~~         ph          ~~~~~~~~~~~~~~
|---------------------------------------------------------------------|
|-7---7-8-10p8p7-----------10b-----\--------8b--r/18fb-20fb-----------|
|---9------------9p7-9-------------\-4b-r2-/--------------------------|
|----------------------9-7--------------------------------------------|
|---------------------------------------------------------------------|
|---------------------------------------------------------------------|

               ~~~~~~~~~~~
|-22fb----r-----------------|
|-----------20fb----------\-|
|---------------------------|
|---------------------------|
|---------------------------|
|---------------------------|




  Guitar 1
    ~~~~~~~~~~~~~~~~~~~~~~~~~~~~~~~~~~~~~~~~~~~~~~~~~~~~~~~~~~~~~~~~
[-------------------------------------------------------------------|
[-------------------------------------------------------------------|
[-------------------------------------------------------------------|
[--5------/9------8-------\6---------5------/9------8-------\6------|
[-------------------------------------------------------------------|
[-------------------------------------------------------------------|
[Guitar 2
[  ~~~~~~~~~~~~~~~~~~~~~~~~~~~~~~~~~~~~~~~~~~~~~~~~~~~~~~~~~~~~~~~~~
[-------------------------------------------------------------------|
[-------------------------------------------------------------------|
[--4------/7------6-------\3--------4------/7------6--------/9------|
[-------------------------------------------------------------------|
[-------------------------------------------------------------------|
[-------------------------------------------------------------------|


  Guitar 1
    ~~~~~~~~~~~~~~~~~~~~~~~~~~~~~~~~~~~~~~~~~~~~~~~~~~~~~~~~~~~~~~~~
[-------------------------------------------------------------------|
[-------------------------------------------------------------------|
[-------------------------------------------------------------------|
[--5------/9------8-------\6---------5------/9------8-------\6------|
[-------------------------------------------------------------------|
[-------------------------------------------------------------------|
[Guitar 2
[  ~~~~~~~~~~~~~~~~~~~~~~~~~~~~~~~~~~~~~~~~~~~~~~~~~~~~~~~~~~~~~~~~~
[-------------------------------------------------------------------|
[-------------------------------------------------------------------|
[--4------/7------6-------\3--------4------/7------6--------/9------|
[-------------------------------------------------------------------|
[-------------------------------------------------------------------|
[-------------------------------------------------------------------|

 Guitar 1
   ~~~~~~~~~~
[------------|
[------------|
[------------|
[-/9---------|
[------------|
[------------|
[Guitar 2
[  ~~~~~~~~~~
[------------|
[------------|
[-/7---------|
[------------|
[------------|
[------------|

|------------------------------------------------------------------|
|------------------------------------------------------------------|
|-----------------2-2-2-2-2-2-2-2-5-5-5-5-5-5-5-5/7--7--7/8--8--8--|
|-5-5-5-5-5-5-5-5-2-2-2-2-2-2-2-2-5-5-5-5-5-5-5-5/7--7--7/8--8--8--|
|-5-5-5-5-5-5-5-5-0-0-0-0-0-0-0-0-3-3-3-3-3-3-3-3/5--5--5/6--6--6--|
|-3-3-3-3-3-3-3-3--------------------------------------------------|

 [--PM--]          
|-------------------|
|-------------------|
|-------------------|
|---------9--(9)--\-|
|-2-2-2-2-7--(7)--\-|
|-0-0-0-0-----------|






END

Suggest correction
Creating personal tab
Creating personal tab
You can edit any tab online and save it as your Personal.

You can edit, replace or remove any tab part or add personal notes – all changes will be seen only by you.

Personal tabs can be accessed anytime from any device, even offline.
Learn more »
Give kudos to tab author, rate the tab!
1 2 3 4 5
comments
print report bad tab
guest
You may want to rate the tab now too:
select rating
Wanna post a correction for this tab? Suggest correction