Oops, an error
Loading. Please wait.

Raze To The Ground Tab

276 views 3 this week
no commentswrite comment
1 2 3 4 5
please rate
add to favorites
launch autoscroll
font size
0
reset
how to read this tab
guitar tuner
Tab Pro tools
  • play this tab
  • loop segment
  • change instrument
  • show fretboard
  • metronome
×
Best way to learn
"Raze To The Ground"
Autoscroll
slow
fast
+/-
esc
set tempo
stop
Contributor
Difficulty
Tuning
intermediate
C G C F A D
--------------------------------------------------------------------------
                             Raze To The Ground - Hemlock
--------------------------------------------------------------------------
Tabbed by: jtom#11
Email: jtom2@rmusd.net

Tuning: CGCFAD
 

| U  up stoke
| D  down stroke
| /  slide up
| \  slide down
| h  hammer-on
| p  pull-off
| ~  vibrato
| +  harmonic
| x  Mute note
| >  let string ring




(intro)                             
(0.02)(4x)                 # on the 3rd and 4th time the 2nd guitar plays 
                           this]       
D|-------------------------|-----------------------|
A|-------------------------|--20-20-20-20-20-------|
F|-------------------------|--19-19-19-19-19-------|
C|--1>--0>--1>-/-6>--------|--17-17-17-17-17-------|
G|--1>--0>--1>-/-6>--------|-----------------------|
C|--1>--0>--1>-/-6>--------|-----------------------|
                              D  U  D  U  D 
(Verse)
(0.22)(2x)

D|----------------------------------------------------------------|
A|----------------------------------------------------------------|
F|----------------------------------------------------------------|
C|--1-1-1-1--0-----1-1-1-1--0-----1-1-1-1--0-----1-1-1-1-/-6>-----|
G|--1-1-1-1--0-----1-1-1-1--0-----1-1-1-1--0-----1-1-1-1-/-6>-----|
C|--1-1-1-1--0-----1-1-1-1--0-----1-1-1-1--0-----1-1-1-1-/-6>-----|
    . . . .        . . . .        . . . .        . . . .


(0.32)(2x)

D|----------------------------------------------|
A|----------------------------------------------|
F|----------------------------------------------|
C|--1111000011110000111100001111-/--6>----------|
G|--1111000011110000111100001111-/--6>----------|
C|--1111000011110000111100001111-/--6>----------|
    ............................


(0.43)(4X)                 # on the 3rd and 4th time the 2nd guitar plays 
(chorus)                   this]                                          

D|-------------------------|-----------------------|
A|-------------------------|--20-20-20-20-20-------|
F|-------------------------|--19-19-19-19-19-------|
C|--1>--0>--1>-/-6>--------|--17-17-17-17-17-------|
G|--1>--0>--1>-/-6>--------|-----------------------|
C|--1>--0>--1>-/-6>--------|-----------------------|
                              D  U  D  U  D 


(1.03)(2x)

D|----------------------------------------------------------------|
A|----------------------------------------------------------------|
F|----------------------------------------------------------------|
C|--1-1-1-1--0-----1-1-1-1--0-----1-1-1-1--0-----1-1-1-1-/-6>-----|
G|--1-1-1-1--0-----1-1-1-1--0-----1-1-1-1--0-----1-1-1-1-/-6>-----|
C|--1-1-1-1--0-----1-1-1-1--0-----1-1-1-1--0-----1-1-1-1-/-6>-----|
    . . . .        . . . .        . . . .        . . . .


(1.13)(2x)

D|----------------------------------------------|
A|----------------------------------------------|
F|----------------------------------------------|
C|--1111000011110000111100001111-/--6>----------|
G|--1111000011110000111100001111-/--6>----------|
C|--1111000011110000111100001111-/--6>----------|
    ............................



                           # on the 3rd and 4th time the 2nd guitar plays 
(1.23)(4x)                 this]                                          

D|-------------------------|--------------------|---------|
A|-------------------------|--20-20-20-20-20----|---------|
F|-------------------------|--19-19-19-19-19----|---------|
C|--1>--0>--1>-/-6>--------|--17-17-17-17-17----|--0>-----|
G|--1>--0>--1>-/-6>--------|--------------------|--0>-----|
C|--1>--0>--1>-/-6>--------|--------------------|--0>-----|
                              D  U  D  U  D                    .

 

(1.43)(12x)
                                               
#This is also the rhythm for
the little solo
                  #after each 6th time play this      
D|----------------|-----------------|------|
A|----------------|-----------------|------|
F|------7-----8---|--7----7---7-----|--7>--|
C|----7-----8-----|--7--7---7-------|--7>--|
G|--5-----6-------|--5--------------|--5>--|
C|----------------|-----------------|------|



(2.04)(little Solo)          (2.14)

D|--------------------------|--------------------------------|-------------|
A|--------------------------|--------------------------------|-------------|
F|--/-19~---17h19-17\15-14~-|--19-17-20-19--17\15-15\14--14~-|-19-17-20-19~|
C|--------------------------|--------------------------------|-------------|
G|--------------------------|--------------------------------|-------------|
C|--------------------------|--------------------------------|-------------|



(2.14)(6x) This is the 2nd part for the rhythm

D|---------------------------|
A|---------------------------|
F|----------5----------6-----|
C|--------5----------6-------|
G|--33333------44444---------|
C|---------------------------|



                           # on the 2nd time the 2nd guitar plays 
(2.34)(2x)                     this]  

D|-------------------------|----------------------|
A|-------------------------|--20-20-20-20-20------|
F|-------------------------|--19-19-19-19-19------|
C|--1>--0>--1>-/-6>--------|--17-17-17-17-17------|
G|--1>--0>--1>-/-6>--------|----------------------|
C|--1>--0>--1>-/-6>--------|----------------------|
                              D  U  D  U  D 


(2.44)(2x)

D|----------------------------------------------------------------|
A|----------------------------------------------------------------|
F|----------------------------------------------------------------|
C|--1-1-1-1--0-----1-1-1-1--0-----1-1-1-1--0-----1-1-1-1-/-6>-----|
G|--1-1-1-1--0-----1-1-1-1--0-----1-1-1-1--0-----1-1-1-1-/-6>-----|
C|--1-1-1-1--0-----1-1-1-1--0-----1-1-1-1--0-----1-1-1-1-/-6>-----|
    . . . .        . . . .        . . . .        . . . .


(2.54)(2x)

D|----------------------------------------------|
A|----------------------------------------------|
F|----------------------------------------------|
C|--1111000011110000111100001111-/--6>----------|
G|--1111000011110000111100001111-/--6>----------|
C|--1111000011110000111100001111-/--6>----------|
    ............................



(3.04)                     # on the 3rd and 4th time the 2nd guitar plays 
(chorus)                    this]             (3.21)                            

D|-------------------------|------------------|-------------------------|
A|-------------------------|--20-20-20-20-20--|--202020202020202020-----|
F|-------------------------|--19-19-19-19-19--|--191919191919191919-----|
C|--1>--0>--1>-/-6>--------|--17-17-17-17-17--|--171717171717171717-----|
G|--1>--0>--1>-/-6>--------|------------------|-------------------------|
C|--1>--0>--1>-/-6>--------|------------------|-------------------------|
                              D  U  D  U  D      Strum on this part.

(3.24)
let ring till end of song

D|---------|
A|---------|
F|---------|
C|--0>-----|
G|--0>-----|
C|--0>-----|



Check out Hemlock website at hemlockworld.com

Thats it, not perfect but there you have it!!!!!!!!!!!
comments
We did not receive enough feedback on this tab! Please rate:
print report bad tab
1 2 3 4 5
I want to post or [tab]
guest
You may want to rate the tab now too:
select rating
Please do not post tabs as comments. Select "correction" instead!