Oops, an error
Loading. Please wait.

Answer tab

26 views 1 this week
no commentswrite comment
1 2 3 4 5
3 more votes to show rating
add to favorites
×
Save as Personal and add changes to this tab that will be seen only by you. Learn more ›
×
You can save this tab as Personal to edit and correct it or add notes. All changes will be seen only by you. Learn more »
launch autoscroll
font size
0
reset
how to read this tab
guitar tuner
edit
Autoscroll
slow
fast
+/-
esc
set tempo
stop
This song is The Answer, by Henan Drive, a Pop-Rock band from Swansea, South Wales.

The tab has been checked by the band, is mostly accurate.

Any suggestions email this_is_my_msn_addy@hotmail.co.uk

Clean

      E   E   E   E   E   E   E  E      E   E   E   E   E   E   E  E   
E||---------------------------------|---------------------------------|
B||--10--10--10--10--10--10--10-----|--10--10--10--10--10--10--10-----|
G||--11--11--11--11--11--11--11-----|--11--11--11--11--11--11--11-----|
D||---0---0---0---0---0---0---0-----|---9---9---9---9---9---9---9-----|
A||---0---0---0---0---0---0---0-----|---9---9---9---9---9---9---9-----|
D||---0---0---0---0---0---0---0-----|---9---9---9---9---9---9---9-----|


   E   E   E   E   E   E   E  E      E   E   E   E   E   E   E  E   
---------------------------------|---------------------------------|
--10--10--10--10--10--10--10-----|--10--10--10--10--10--10--10-----|
--11--11--11--11--11--11--11-----|--11--11--11--11--11--11--11-----|
---0---0---0---0---0---0---0-----|---9---9---9---9---9---9---9-----|
---0---0---0---0---0---0---0-----|---9---9---9---9---9---9---9-----|
---0---0---0---0---0---0---0-----|---9---9---9---9---9---9---9-----|

Dist

   E   E  E   E   E  E   E  E      E   E  E   E   E  E   E  E   
-------------------------------|-------------------------------|
--10--10-----10--10-----10-----|--10--10-----10--10-----10-----|
--11--11-----11--11-----11-----|--11--11-----11--11-----11-----|
---0---0------0---0------0-----|---9---9------9---9------9-----|
---0---0------0---0------0-----|---9---9------9---9------9-----|
---0---0------0---0------0-----|---9---9------9---9------9-----|


   E   E  E   E   E  E   E  E      E   E  E   E   E  E   E  E   
-------------------------------|-------------------------------|
--10--10-----10--10-----10-----|--10--10-----10--10-----10-----|
--11--11-----11--11-----11-----|--11--11-----11--11-----11-----|
---0---0------0---0------0-----|---9---9------9---9------9-----|
---0---0------0---0------0-----|---9---9------9---9------9-----|
---0---0------0---0------0-----|---9---9------9---9------9-----|

Clean

  E   Q    E   Q    E   E      E  E   Q    E  E   Q     
---------------------------|---------------------------|
-----10-------10-------10--|---L-----10----------------|
-----11-------11-------11--|---L-----11----------------|
------0--------0--------0--|---L------0----------------|
--0--------0--------0------|------0--------4--4S--9----|
--0--------0--------0------|------0--------4--4S--9----|


  E   Q    E   Q    E   E      E  E   Q    E  E   Q     
---------------------------|---------------------------|
-----10-------10-------10--|---L-----10----------------|
-----11-------11-------11--|---L-----11----------------|
------0--------0--------0--|---L------0----------------|
--0--------0--------0------|------0--------4--4S--9----|
--0--------0--------0------|------0--------4--4S--9----|


  E   Q    E   Q    E   E      E  E   Q    E  E   Q     
---------------------------|---------------------------|
-----10-------10-------10--|---L-----10----------------|
-----11-------11-------11--|---L-----11----------------|
------0--------0--------0--|---L------0----------------|
--0--------0--------0------|------0--------4--4S--9----|
--0--------0--------0------|------0--------4--4S--9----|


  E   Q    E   Q    E   E      E  E   Q    E  E   Q     
---------------------------|---------------------------|
-----10-------10-------10--|---L-----10----------------|
-----11-------11-------11--|---L-----11----------------|
------0--------0--------0--|---L------0----------------|
--0--------0--------0------|------0--------4--4S--9----|
--0--------0--------0------|------0--------4--4S--9----|


  E   Q    E   Q    E   E      E  E   Q    E  E   Q     
---------------------------|---------------------------|
-----10-------10-------10--|---L-----10----------------|
-----11-------11-------11--|---L-----11----------------|
------0--------0--------0--|---L------0----------------|
--0--------0--------0------|------0--------4--4S--9----|
--0--------0--------0------|------0--------4--4S--9----|


  E   Q    E   Q    E   E      E  E   Q    E  E   Q     
---------------------------|---------------------------|
-----10-------10-------10--|---L-----10----------------|
-----11-------11-------11--|---L-----11----------------|
------0--------0--------0--|---L------0----------------|
--0--------0--------0------|------0--------4--4S--9----|
--0--------0--------0------|------0--------4--4S--9----|

Dist

   E   E  E   E   E  E   E  E      E   E  E   E   E  E   E  E   
-------------------------------|-------------------------------|
--10--10-----10--10-----10-----|--10--10-----10--10-----10-----|
--11--11-----11--11-----11-----|--11--11-----11--11-----11-----|
---0---0------0---0------0-----|---9---9------9---9------9-----|
---0---0------0---0------0-----|---9---9------9---9------9-----|
---0---0------0---0------0-----|---9---9------9---9------9-----|


   E   E  E   E   E  E   E  E      E   E  E   E   E  E   E  E   
-------------------------------|-------------------------------|
--10--10-----10--10-----10-----|--10--10-----10--10-----10-----|
--11--11-----11--11-----11-----|--11--11-----11--11-----11-----|
---0---0------0---0------0-----|---9---9------9---9------9-----|
---0---0------0---0------0-----|---9---9------9---9------9-----|
---0---0------0---0------0-----|---9---9------9---9------9-----|


   E   E  E   E   E  E   E  E      E   E  E   E   E  E   E  E   
-------------------------------|-------------------------------|
--10--10-----10--10-----10-----|--10--10-----10--10-----10-----|
--11--11-----11--11-----11-----|--11--11-----11--11-----11-----|
---0---0------0---0------0-----|---9---9------9---9------9-----|
---0---0------0---0------0-----|---9---9------9---9------9-----|
---0---0------0---0------0-----|---9---9------9---9------9-----|


   E   E  E   E   E  E   E  E      E   E  E   E   E  E   E  E   
-------------------------------|-------------------------------|
--10--10-----10--10-----10-----|--10--10-----10--10-----10-----|
--11--11-----11--11-----11-----|--11--11-----11--11-----11-----|
---0---0------0---0------0-----|---9---9------9---9------9-----|
---0---0------0---0------0-----|---9---9------9---9------9-----|
---0---0------0---0------0-----|---9---9------9---9------9-----|

Clean

  E   Q    E   Q    E   E      E  E   Q    E  E   Q     
---------------------------|---------------------------|
-----10-------10-------10--|---L-----10----------------|
-----11-------11-------11--|---L-----11----------------|
------0--------0--------0--|---L------0----------------|
--0--------0--------0------|------0--------4--4S--9----|
--0--------0--------0------|------0--------4--4S--9----|


  E   Q    E   Q    E   E      E  E   Q    E  E   Q     
---------------------------|---------------------------|
-----10-------10-------10--|---L-----10----------------|
-----11-------11-------11--|---L-----11----------------|
------0--------0--------0--|---L------0----------------|
--0--------0--------0------|------0--------4--4S--9----|
--0--------0--------0------|------0--------4--4S--9----|


  E   Q    E   Q    E   E      E  E   Q    E  E   Q     
---------------------------|---------------------------|
-----10-------10-------10--|---L-----10----------------|
-----11-------11-------11--|---L-----11----------------|
------0--------0--------0--|---L------0----------------|
--0--------0--------0------|------0--------4--4S--9----|
--0--------0--------0------|------0--------4--4S--9----|


  E   Q    E   Q    E   E      E  E   Q    E  E   Q     
---------------------------|---------------------------|
-----10-------10-------10--|---L-----10----------------|
-----11-------11-------11--|---L-----11----------------|
------0--------0--------0--|---L------0----------------|
--0--------0--------0------|------0--------4--4S--9----|
--0--------0--------0------|------0--------4--4S--9----|

Dist

   E   E  E   E   E  E   E  E      E   E  E   E   E  E   E  E   
-------------------------------|-------------------------------|
--10--10-----10--10-----10-----|--10--10-----10--10-----10-----|
--11--11-----11--11-----11-----|--11--11-----11--11-----11-----|
---0---0------0---0------0-----|---9---9------9---9------9-----|
---0---0------0---0------0-----|---9---9------9---9------9-----|
---0---0------0---0------0-----|---9---9------9---9------9-----|


   E   E  E   E   E  E   E  E      E   E  E   E   E  E   E  E   
-------------------------------|-------------------------------|
--10--10-----10--10-----10-----|--10--10-----10--10-----10-----|
--11--11-----11--11-----11-----|--11--11-----11--11-----11-----|
---0---0------0---0------0-----|---9---9------9---9------9-----|
---0---0------0---0------0-----|---9---9------9---9------9-----|
---0---0------0---0------0-----|---9---9------9---9------9-----|


   E   E  E   E   E  E   E  E      E   E  E   E   E  E   E  E   
-------------------------------|-------------------------------|
--10--10-----10--10-----10-----|--10--10-----10--10-----10-----|
--11--11-----11--11-----11-----|--11--11-----11--11-----11-----|
---0---0------0---0------0-----|---9---9------9---9------9-----|
---0---0------0---0------0-----|---9---9------9---9------9-----|
---0---0------0---0------0-----|---9---9------9---9------9-----|


   E   E  E   E   E  E   E  E      E   E  E   E   E  E   E  E   
-------------------------------|-------------------------------|
--10--10-----10--10-----10-----|--10--10-----10--10-----10-----|
--11--11-----11--11-----11-----|--11--11-----11--11-----11-----|
---0---0------0---0------0-----|---9---9------9---9------9-----|
---0---0------0---0------0-----|---9---9------9---9------9-----|
---0---0------0---0------0-----|---9---9------9---9------9-----|


  E  E  E  E  E  E  E  E     E  E  E  E  E  E  E  E   
--------------------------|--------------------------|
--------------------------|--------------------------|
--------------------------|--7--7--7--7--7--7--7--7--|
--5--5--5--5--5--5--5--5--|--7--7--7--7--7--7--7--7--|
--5--5--5--5--5--5--5--5--|--5--5--5--5--5--5--5--5--|
--5--5--5--5--5--5--5--5--|--5--5--5--5--5--5--5--5--|


  E  E  E  E  E  E  E  E     E  E  E  E  E  E  E  E   
--0--0--0--0--0--0--0--0--|--------------------------|
--3--3--3--3--3--3--3--3--|--3--3--3--3--3--3--3--3--|
--2--2--2--2--2--2--2--2--|--2--2--2--2--2--2--2--2--|
--0--0--0--0--0--0--0--0--|--2--2--2--2--2--2--2--2--|
--0--0--0--0--0--0--0--0--|--2--2--2--2--2--2--2--2--|
--0--0--0--0--0--0--0--0--|--2--2--2--2--2--2--2--2--|


  E  E  E  E  E  E  E  E     E  E  E  E  E  E  E  E   
--------------------------|--------------------------|
--------------------------|--------------------------|
--------------------------|--7--7--7--7--7--7--7--7--|
--5--5--5--5--5--5--5--5--|--7--7--7--7--7--7--7--7--|
--5--5--5--5--5--5--5--5--|--5--5--5--5--5--5--5--5--|
--5--5--5--5--5--5--5--5--|--5--5--5--5--5--5--5--5--|


  E  E  E  E  E  E  E  E     E  E  E  E  E  E  E  E   
--0--0--0--0--0--0--0--0--|--------------------------|
--3--3--3--3--3--3--3--3--|--3--3--3--3--3--3--3--3--|
--2--2--2--2--2--2--2--2--|--2--2--2--2--2--2--2--2--|
--0--0--0--0--0--0--0--0--|--2--2--2--2--2--2--2--2--|
--0--0--0--0--0--0--0--0--|--2--2--2--2--2--2--2--2--|
--0--0--0--0--0--0--0--0--|--2--2--2--2--2--2--2--2--|


  E  E  E  E  E  E  E  E     E  E  E  E  E  E  E  E   
--------------------------|--------------------------|
--------------------------|--------------------------|
--------------------------|--------------------------|
--5--5-----5--5-----5-----|--5--5-----5--5-----5-----|
--5--5-----5--5-----5-----|--5--5-----5--5-----5-----|
--5--5-----5--5-----5-----|--5--5-----5--5-----5-----|

Clean

  E   Q    E   Q    E   E      E  E   Q    E  E   Q     
---------------------------|---------------------------|
-----10-------10-------10--|---L-----10----------------|
-----11-------11-------11--|---L-----11----------------|
------0--------0--------0--|---L------0----------------|
--0--------0--------0------|------0--------4--4S--9----|
--0--------0--------0------|------0--------4--4S--9----|


  E   Q    E   Q    E   E      E  E   Q    E  E   Q     
---------------------------|---------------------------|
-----10-------10-------10--|---L-----10----------------|
-----11-------11-------11--|---L-----11----------------|
------0--------0--------0--|---L------0----------------|
--0--------0--------0------|------0--------4--4S--9----|
--0--------0--------0------|------0--------4--4S--9----|


  E   Q    E   Q    E   E      E  E   Q    E  E   Q     
---------------------------|---------------------------|
-----10-------10-------10--|---L-----10----------------|
-----11-------11-------11--|---L-----11----------------|
------0--------0--------0--|---L------0----------------|
--0--------0--------0------|------0--------4--4S--9----|
--0--------0--------0------|------0--------4--4S--9----|


  E   Q    E   Q    E   E      E  E   Q    E  E   Q     
---------------------------|---------------------------|
-----10-------10-------10--|---L-----10----------------|
-----11-------11-------11--|---L-----11----------------|
------0--------0--------0--|---L------0----------------|
--0--------0--------0------|------0--------4--4S--9----|
--0--------0--------0------|------0--------4--4S--9----|


  E   Q    E   Q    E   E      E  E   Q    E  E   Q     
---------------------------|---------------------------|
-----10-------10-------10--|---L-----10----------------|
-----11-------11-------11--|---L-----11----------------|
------0--------0--------0--|---L------0----------------|
--0--------0--------0------|------0--------4--4S--9----|
--0--------0--------0------|------0--------4--4S--9----|


  E   Q    E   Q    E   E      E  E   Q    E  E   Q     
---------------------------|---------------------------|
-----10-------10-------10--|---L-----10----------------|
-----11-------11-------11--|---L-----11----------------|
------0--------0--------0--|---L------0----------------|
--0--------0--------0------|------0--------4--4S--9----|
--0--------0--------0------|------0--------4--4S--9----|

Dist

   E   E  E   E   E  E   E  E      E   E  E   E   E  E   E  E   
-------------------------------|-------------------------------|
--10--10-----10--10-----10-----|--10--10-----10--10-----10-----|
--11--11-----11--11-----11-----|--11--11-----11--11-----11-----|
---0---0------0---0------0-----|---9---9------9---9------9-----|
---0---0------0---0------0-----|---9---9------9---9------9-----|
---0---0------0---0------0-----|---9---9------9---9------9-----|


   E   E  E   E   E  E   E  E      E   E  E   E   E  E   E  E   
-------------------------------|-------------------------------|
--10--10-----10--10-----10-----|--10--10-----10--10-----10-----|
--11--11-----11--11-----11-----|--11--11-----11--11-----11-----|
---0---0------0---0------0-----|---9---9------9---9------9-----|
---0---0------0---0------0-----|---9---9------9---9------9-----|
---0---0------0---0------0-----|---9---9------9---9------9-----|


   E   E  E   E   E  E   E  E      E   E  E   E   E  E   E  E   
-------------------------------|-------------------------------|
--10--10-----10--10-----10-----|--10--10-----10--10-----10-----|
--11--11-----11--11-----11-----|--11--11-----11--11-----11-----|
---0---0------0---0------0-----|---9---9------9---9------9-----|
---0---0------0---0------0-----|---9---9------9---9------9-----|
---0---0------0---0------0-----|---9---9------9---9------9-----|


   E   E  E   E   E  E   E  E      E   E  E   E   E  E   E  E   
-------------------------------|-------------------------------|
--10--10-----10--10-----10-----|--10--10-----10--10-----10-----|
--11--11-----11--11-----11-----|--11--11-----11--11-----11-----|
---0---0------0---0------0-----|---9---9------9---9------9-----|
---0---0------0---0------0-----|---9---9------9---9------9-----|
---0---0------0---0------0-----|---9---9------9---9------9-----|


  E  E  E  E  E  E  E  E     E  E  E  E  E  E  E  E   
--------------------------|--------------------------|
--------------------------|--------------------------|
--------------------------|--7--7--7--7--7--7--7--7--|
--5--5--5--5--5--5--5--5--|--7--7--7--7--7--7--7--7--|
--5--5--5--5--5--5--5--5--|--5--5--5--5--5--5--5--5--|
--5--5--5--5--5--5--5--5--|--5--5--5--5--5--5--5--5--|


  E  E  E  E  E  E  E  E     E  E  E  E  E  E  E  E   
--0--0--0--0--0--0--0--0--|--------------------------|
--3--3--3--3--3--3--3--3--|--3--3--3--3--3--3--3--3--|
--2--2--2--2--2--2--2--2--|--2--2--2--2--2--2--2--2--|
--0--0--0--0--0--0--0--0--|--2--2--2--2--2--2--2--2--|
--0--0--0--0--0--0--0--0--|--2--2--2--2--2--2--2--2--|
--0--0--0--0--0--0--0--0--|--2--2--2--2--2--2--2--2--|


  E  E  E  E  E  E  E  E     E  E  E  E  E  E  E  E   
--------------------------|--------------------------|
--------------------------|--------------------------|
--------------------------|--7--7--7--7--7--7--7--7--|
--5--5--5--5--5--5--5--5--|--7--7--7--7--7--7--7--7--|
--5--5--5--5--5--5--5--5--|--5--5--5--5--5--5--5--5--|
--5--5--5--5--5--5--5--5--|--5--5--5--5--5--5--5--5--|


  E  E  E  E  E  E  E  E     E  E  E  E  E  E  E  E   
--0--0--0--0--0--0--0--0--|--------------------------|
--3--3--3--3--3--3--3--3--|--3--3--3--3--3--3--3--3--|
--2--2--2--2--2--2--2--2--|--2--2--2--2--2--2--2--2--|
--0--0--0--0--0--0--0--0--|--2--2--2--2--2--2--2--2--|
--0--0--0--0--0--0--0--0--|--2--2--2--2--2--2--2--2--|
--0--0--0--0--0--0--0--0--|--2--2--2--2--2--2--2--2--|


  E  E  E  E  E  E  E  E     E  E  E  E  E  E  E  E   
--------------------------|--------------------------|
--------------------------|--------------------------|
--------------------------|--------------------------|
--5--5-----5--5-----5-----|--5--5-----5--5-----5-----|
--5--5-----5--5-----5-----|--5--5-----5--5-----5-----|
--5--5-----5--5-----5-----|--5--5-----5--5-----5-----|

Clean

   E   Q     E   Q     E  E     E   E  Q     E  E   Q     
-----------------------------|---------9--------9--------|
------10--------10--------9--|--L------------------------|
--11--------11--------11-----|-----11-------11-----11----|
-----------------------------|---------------------------|
-----------------------------|---------------------------|
-----------------------------|---------------------------|


   E   Q     E   Q     E  E     E   E  Q     E  E   Q     
-----------------------------|---------9--------9--------|
------10--------10--------9--|--L------------------------|
--11--------11--------11-----|-----11-------11-----11----|
-----------------------------|---------------------------|
-----------------------------|---------------------------|
-----------------------------|---------------------------|


   E   Q     E   Q     E  E     E   E  Q     E  E   Q     
-----------------------------|---------9--------9--------|
------10--------10--------9--|--L------------------------|
--11--------11--------11-----|-----11-------11-----11----|
-----------------------------|---------------------------|
-----------------------------|---------------------------|
-----------------------------|---------------------------|


   E   Q     E   Q     E  E     E   E  Q     E  E   Q     
-----------------------------|---------9--------9--------|
------10--------10--------9--|--L------------------------|
--11--------11--------11-----|-----11-------11-----11----|
-----------------------------|---------------------------|
-----------------------------|---------------------------|
-----------------------------|---------------------------|

Dist

  E  E  E  E  E  E  Q       E  E   E   E   E   E   E  E   
-------------------------|-------------------------------|
-------------------------|-------------------------------|
--7--7--7--7--7--7--7----|--9--9--11--11--11--11--11-----|
-------------------------|-------------------------------|
--5--5--5--5--5--5--5----|--7--7---9---9---9---9---9-----|
-------------------------|-------------------------------|


  E  E  E  E  E  E  Q       E  E   E   E   E   E   E  E   
-------------------------|-------------------------------|
-------------------------|-------------------------------|
--7--7--7--7--7--7--7----|--9--9--11--11--11--11--11-----|
-------------------------|-------------------------------|
--5--5--5--5--5--5--5----|--7--7---9---9---9---9---9-----|
-------------------------|-------------------------------|


  E  E  E  E  E  E  Q       E  E   E   E   E   E   E  E   
-------------------------|-------------------------------|
-------------------------|-------------------------------|
--7--7--7--7--7--7--7----|--9--9--11--11--11--11--11-----|
-------------------------|-------------------------------|
--5--5--5--5--5--5--5----|--7--7---9---9---9---9---9-----|
-------------------------|-------------------------------|


   E   E   E   E   E   E   E   E      E   E  E  E  E  E  E  E   
----------------------------------|----------------------------|
----------------------------------|----------------------------|
--12--12--12--12--12--12--12--11--|--11--11--9--9--9--7--7-----|
----------------------------------|----------------------------|
--10--10--10--10--10--10--10---9--|---9---9--7--7--7--5--5-----|
----------------------------------|----------------------------|


   E   E   E   E   E   E   E   E      E   E  E  E  E  E  E  E   
----------------------------------|----------------------------|
----------------------------------|----------------------------|
--12--12--12--12--12--12--12--11--|--11--11--9--9--9--7--7-----|
----------------------------------|----------------------------|
--10--10--10--10--10--10--10---9--|---9---9--7--7--7--5--5-----|
----------------------------------|----------------------------|


   E   E   E   E   E   E   E   E      E   E  E  E  E  E  E  E   
----------------------------------|----------------------------|
----------------------------------|----------------------------|
--12--12--12--12--12--12--12--11--|--11--11--9--9--9--7--7-----|
----------------------------------|----------------------------|
--10--10--10--10--10--10--10---9--|---9---9--7--7--7--5--5-----|
----------------------------------|----------------------------|


   E   E   E   E   E   E   E  E      E   E   E   E   E   E   E  E   
---------------------------------|---------------------------------|
---------------------------------|---------------------------------|
--12--12--12--12--12--12--12-----|--12--12--12--12--12--12--12-----|
---------------------------------|---------------------------------|
--10--10--10--10--10--10--10-----|--10--10--10--10--10--10--10-----|
---------------------------------|---------------------------------|


  E  E  E  E  E  E  E  E     E  E  E  E  E  E  E  E   
--------------------------|--------------------------|
--------------------------|--------------------------|
--------------------------|--7--7--7--7--7--7--7--7--|
--5--5--5--5--5--5--5--5--|--7--7--7--7--7--7--7--7--|
--5--5--5--5--5--5--5--5--|--5--5--5--5--5--5--5--5--|
--5--5--5--5--5--5--5--5--|--5--5--5--5--5--5--5--5--|


  E  E  E  E  E  E  E  E     E  E  E  E  E  E  E  E   
--0--0--0--0--0--0--0--0--|--------------------------|
--3--3--3--3--3--3--3--3--|--3--3--3--3--3--3--3--3--|
--2--2--2--2--2--2--2--2--|--2--2--2--2--2--2--2--2--|
--0--0--0--0--0--0--0--0--|--2--2--2--2--2--2--2--2--|
--0--0--0--0--0--0--0--0--|--2--2--2--2--2--2--2--2--|
--0--0--0--0--0--0--0--0--|--2--2--2--2--2--2--2--2--|


  E  E  E  E  E  E  E  E     E  E  E  E  E  E  E  E   
--------------------------|--------------------------|
--------------------------|--------------------------|
--------------------------|--7--7--7--7--7--7--7--7--|
--5--5--5--5--5--5--5--5--|--7--7--7--7--7--7--7--7--|
--5--5--5--5--5--5--5--5--|--5--5--5--5--5--5--5--5--|
--5--5--5--5--5--5--5--5--|--5--5--5--5--5--5--5--5--|


  E  E  E  E  E  E  E  E     E  E  E  E  E  E  E  E   
--0--0--0--0--0--0--0--0--|--------------------------|
--3--3--3--3--3--3--3--3--|--3--3--3--3--3--3--3--3--|
--2--2--2--2--2--2--2--2--|--2--2--2--2--2--2--2--2--|
--0--0--0--0--0--0--0--0--|--2--2--2--2--2--2--2--2--|
--0--0--0--0--0--0--0--0--|--2--2--2--2--2--2--2--2--|
--0--0--0--0--0--0--0--0--|--2--2--2--2--2--2--2--2--|


  E  E  E  E  E  E  E  E     E  E  E  E  E  E  E  E   
--------------------------|--------------------------|
--------------------------|--------------------------|
--------------------------|--7--7--7--7--7--7--7--7--|
--5--5--5--5--5--5--5--5--|--7--7--7--7--7--7--7--7--|
--5--5--5--5--5--5--5--5--|--5--5--5--5--5--5--5--5--|
--5--5--5--5--5--5--5--5--|--5--5--5--5--5--5--5--5--|


  E  E  E  E  E  E  E  E     E  E  E  E  E  E  E  E   
--0--0--0--0--0--0--0--0--|--------------------------|
--3--3--3--3--3--3--3--3--|--3--3--3--3--3--3--3--3--|
--2--2--2--2--2--2--2--2--|--2--2--2--2--2--2--2--2--|
--0--0--0--0--0--0--0--0--|--2--2--2--2--2--2--2--2--|
--0--0--0--0--0--0--0--0--|--2--2--2--2--2--2--2--2--|
--0--0--0--0--0--0--0--0--|--2--2--2--2--2--2--2--2--|


  E  E  E  E  E  E  E  E     E  E  E  E  E  E  E  E     E  E  E  E  E  E  Q     
--------------------------|--------------------------|-------------------------|
--------------------------|--------------------------|-------------------------|
--------------------------|--------------------------|--7--7--7--7--7--7--7----|
--5--5-----5--5-----5-----|--5--5-----5--5-----5-----|-------------------------|
--5--5-----5--5-----5-----|--5--5-----5--5-----5-----|--5--5--5--5--5--5--5----|
--5--5-----5--5-----5-----|--5--5-----5--5-----5-----|-------------------------|


  E  E  E  E  E  E  Q       E  E  E  E  E  E  E  E     E  E  E  E  E  E  E  E   
-------------------------|--------------------------|--------------------------|
-------------------------|--------------------------|--------------------------|
--9--9--9--9--9--9--9----|--------------------------|--------------------------|
-------------------------|--5--5-----5--5-----5-----|--5--5-----5--5-----5-----|
--7--7--7--7--7--7--7----|--5--5-----5--5-----5-----|--5--5-----5--5-----5-----|
-------------------------|--5--5-----5--5-----5-----|--5--5-----5--5-----5-----|


  E  E  E  E  E  E  Q        E   E   E   E   E   E   Q     
-------------------------|--------------------------------|
-------------------------|--------------------------------|
--7--7--7--7--7--7--7----|--14--14--14--14--14--14--14----|
-------------------------|--------------------------------|
--5--5--5--5--5--5--5----|--12--12--12--12--12--12--12----|
-------------------------|--------------------------------|


  E  E  E  E  E  E  E  E     E  E  E  E  E  E  Q       W                 
--------------------------|-------------------------|-------------------|
--------------------------|-------------------------|-------------------|
--------------------------|-------------------------|-------------------|
--5--5-----5--5-----5-----|--5--5-----5--5-----5----|--L----------------|
--5--5-----5--5-----5-----|--5--5-----5--5-----5----|--L----------------|
--5--5-----5--5-----5-----|--5--5-----5--5-----5----|--L----------------|


-------||
-------||
-------||
-------||
-------||
-------||




Duration Legend
---------------
W - whole
H - half
Q - quarter
E - 8th
S - 16th
T - 32nd
X - 64th
. - note dotted
|-n-|  - n-tuplets


Tablature Legend
----------------
L - tied note
x - dead note
g - grace note
(n) - ghost note
> - accentuded note
NH - natural harmonic
AH - artificial harmonic
TH - tapped harmonic
SH - semi harmonic
PH - pitch harmonic
h - hammer on
p - pull off
b - bend
br - bendRelease
pb - preBend
pbr - preBendRelease
brb - bendReleaseBend
\n/ - tremolo bar dip
\n - tremolo bar dive
-/n - tremolo bar Release up
/n\ - tremolo bar inverted dip
/n - tremolo bar return
-\n - tremolo bar Release down
S - shift slide
s - legato slide
/ -  slide into from below or out of upwards
\ -  slide into from above or out of downwards
~ - vibrato
W - wide vibrato
tr - trill
TP - tremolo picking
T - tapping
S - slap
P - pop
< - fade in
^ - brush up
v - brush down

            
            
Suggest correction
Creating personal tab
Creating personal tab
You can edit any tab online and save it as your Personal.

You can edit, replace or remove any tab part or add personal notes – all changes will be seen only by you.

Personal tabs can be accessed anytime from any device, even offline.
Learn more »
Give kudos to tab author, rate the tab!
1 2 3 4 5
comments
print report bad tab
guest
Wanna post a correction for this tab? Suggest correction