Oops, an error
Loading. Please wait.

Ik Vraag Aan Sinterklaas Een Heel Gelukkig Kerstfeest Chords

88 views 9 this week
no commentswrite comment
1 2 3 4 5
3 more votes to show rating
add to favorites
launch autoscroll
font size
0
reset
transpose
0
reset
display chords
guitar tuner
Autoscroll
slow
fast
+/-
esc
set tempo
stop
Help us to improve Ultimate-Guitar.com Take our survey!
×
Difficulty
intermediate
[Intro]
   D   D   E   E     D   D   E   E     D   D   E   E     D   D   E   E   
e|-2---2---0---0---|-2---2---0---0---|-2---2---0---0---|-2---2---0---0---|
B|-3---3---0---0---|-3---3---0---0---|-3---3---0---0---|-3---3---0---0---|
G|-2---2---1---1---|-2---2---1---1---|-2---2---1---1---|-2---2---1---1---|
D|-0---0---2---2---|-0---0---2---2---|-0---0---2---2---|-0---0---2---2---|
A|---------2---2---|---------2---2---|---------2---2---|---------2---2---|
E|---------0---0---|---------0---0---|---------0---0---|---------0---0---|

[Verse]
   E   B   E   E     E   C#m B   B     G#m G#m C#m C#m   B   B   B   B
e|-0---2---0---0---|-0---4---2---2---|-4---4---4---4---|-2---2---2---2---|
B|-0---4---0---0---|-0---5---4---4---|-4---4---5---5---|-4---4---4---4---|
G|-1---4---1---1---|-1---6---4---4---|-4---4---6---6---|-4---4---4---4---|
D|-2---4---2---2---|-2---6---4---4---|-6---6---6---6---|-4---4---4---4---|
A|-2---2---2---2---|-2---4---2---2---|-6---6---4---4---|-2---2---2---2---|
E|-0-------0---0---|-0---------------|-4---4-----------|-----------------|

   E   B   E   E     E   C#m B   B     G#m G#m C#m C#m   B   B   B   B
e|-0---2---0---0---|-0---4---2---2---|-4---4---4---4---|-2---2---2---2---|
B|-0---4---0---0---|-0---5---4---4---|-4---4---5---5---|-4---4---4---4---|
G|-1---4---1---1---|-1---6---4---4---|-4---4---6---6---|-4---4---4---4---|
D|-2---4---2---2---|-2---6---4---4---|-6---6---6---6---|-4---4---4---4---|
A|-2---2---2---2---|-2---4---2---2---|-6---6---4---4---|-2---2---2---2---|
E|-0-------0---0---|-0---------------|-4---4-----------|-----------------|

[Refrain]
   E   B   C#m C#m   F#m C#m B   B     G#m G#  C#m C#m   F#m A   B   B     E   G#  A   B     E   E   E   E
e|-0---2---4---4---|-2---4---2---2---|-4---4---4---4---|-2---0---2---2---|-0---4---0---2---|-0---0---0---0---|
B|-0---4---5---5---|-2---5---4---4---|-4---4---5---5---|-2---2---4---4---|-0---4---2---4---|-0---0---0---0---|
G|-1---4---6---6---|-2---6---4---4---|-4---5---6---6---|-2---2---4---4---|-1---5---2---4---|-1---1---1---1---|
D|-2---4---6---6---|-4---6---4---4---|-6---6---6---6---|-4---2---4---4---|-2---6---2---4---|-2---2---2---2---|
A|-2---2---4---4---|-4---4---2---2---|-6---6---4---4---|-4---0---2---2---|-2---6---0---2---|-2---2---2---2---|
E|-0---------------|-2---------------|-4---4-----------|-2---------------|-0---4-----------|-0---0---0---0---|

[Verse]
   E   B   E   E     E   C#m B   B     G#m G#m C#m C#m   B   B   B   B
e|-0---2---0---0---|-0---4---2---2---|-4---4---4---4---|-2---2---2---2---|
B|-0---4---0---0---|-0---5---4---4---|-4---4---5---5---|-4---4---4---4---|
G|-1---4---1---1---|-1---6---4---4---|-4---4---6---6---|-4---4---4---4---|
D|-2---4---2---2---|-2---6---4---4---|-6---6---6---6---|-4---4---4---4---|
A|-2---2---2---2---|-2---4---2---2---|-6---6---4---4---|-2---2---2---2---|
E|-0-------0---0---|-0---------------|-4---4-----------|-----------------|

   E   B   E   E     E   C#m B   B     G#m G#m C#m C#m   B   B   B   B
e|-0---2---0---0---|-0---4---2---2---|-4---4---4---4---|-2---2---2---2---|
B|-0---4---0---0---|-0---5---4---4---|-4---4---5---5---|-4---4---4---4---|
G|-1---4---1---1---|-1---6---4---4---|-4---4---6---6---|-4---4---4---4---|
D|-2---4---2---2---|-2---6---4---4---|-6---6---6---6---|-4---4---4---4---|
A|-2---2---2---2---|-2---4---2---2---|-6---6---4---4---|-2---2---2---2---|
E|-0-------0---0---|-0---------------|-4---4-----------|-----------------|

[Refrain]
   E   B   C#m C#m   F#m C#m B   B     G#m G#  C#m C#m   F#m A   B   B     E   G#  A   B     E   E   E   E
e|-0---2---4---4---|-2---4---2---2---|-4---4---4---4---|-2---0---2---2---|-0---4---0---2---|-0---0---0---0---|
B|-0---4---5---5---|-2---5---4---4---|-4---4---5---5---|-2---2---4---4---|-0---4---2---4---|-0---0---0---0---|
G|-1---4---6---6---|-2---6---4---4---|-4---5---6---6---|-2---2---4---4---|-1---5---2---4---|-1---1---1---1---|
D|-2---4---6---6---|-4---6---4---4---|-6---6---6---6---|-4---2---4---4---|-2---6---2---4---|-2---2---2---2---|
A|-2---2---4---4---|-4---4---2---2---|-6---6---4---4---|-4---0---2---2---|-2---6---0---2---|-2---2---2---2---|
E|-0---------------|-2---------------|-4---4-----------|-2---------------|-0---4-----------|-0---0---0---0---|

 [Bridge]
   F   C   Dm  Dm    Gm  Dm  C   C     Am  A   Dm  Dm    Gm  Bb  C   C     F   Am  Bb  C     F   F   F   F
e|-1---0---1---1---|-3---1---0---0---|-0---0---1---1---|-3---1---0---0---|-1---0---1---0---|-1---1---1---1---|
B|-1---1---3---3---|-3---3---1---1---|-1---2---3---3---|-3---3---1---1---|-1---1---3---1---|-1---1---1---1---|
G|-2---0---2---2---|-3---2---0---0---|-2---2---2---2---|-3---3---0---0---|-2---2---3---0---|-2---2---2---2---|
D|-3---2---0---0---|-5---0---2---2---|-2---2---0---0---|-5---3---2---2---|-3---2---3---2---|-3---3---3---3---|
A|-3---3-----------|-5-------3---3---|-0---0-----------|-5---1---3---3---|-3---0---1---3---|-3---3---3---3---|
E|-1---------------|-3---------------|-----------------|-3---------------|-1---------------|-1---1---1---1---|

[Outro]
   F   C   Dm  Dm    Gm  Dm  C   C     Am  A   Dm  Dm    Gm  Bb  C   C     F   Am  Bb  C     F   F   F   F
e|-1---0---1---1---|-3---1---0---0---|-0---0---1---1---|-3---1---0---0---|-1---0---1---0---|-1---1---1---1---|
B|-1---1---3---3---|-3---3---1---1---|-1---2---3---3---|-3---3---1---1---|-1---1---3---1---|-1---1---1---1---|
G|-2---0---2---2---|-3---2---0---0---|-2---2---2---2---|-3---3---0---0---|-2---2---3---0---|-2---2---2---2---|
D|-3---2---0---0---|-5---0---2---2---|-2---2---0---0---|-5---3---2---2---|-3---2---3---2---|-3---3---3---3---|
A|-3---3-----------|-5-------3---3---|-0---0-----------|-5---1---3---3---|-3---0---1---3---|-3---3---3---3---|
E|-1---------------|-3---------------|-----------------|-3---------------|-1---------------|-1---1---1---1---|
Suggest correction
Give kudos to tab author, rate the tab!
1 2 3 4 5
comments
print report bad tab
guest
You may want to rate the tab now too:
select rating
Wanna post a correction for this tab? Suggest correction