Oops, an error
Loading. Please wait.

Dallas Love Field tab

61 views 3 this week
no commentswrite comment
1 2 3 4 5
3 more votes to show rating
add to favorites
×
Save as Personal and add changes to this tab that will be seen only by you. Learn more ›
×
You can save this tab as Personal to edit and correct it or add notes. All changes will be seen only by you. Learn more »
launch autoscroll
font size
0
reset
how to read this tab
guitar tuner
edit
Autoscroll
slow
fast
+/-
esc
set tempo
stop
Tuning: Standard
No Capo

This is the video I am referencing:
https://www.youtube.com/watch?v=5p33EFct5K4

The album version barely has the guitar in the mix so I went from this performance above.


"when we met..." 
E------------------------------------------------------------------------
B------------------------------------------------------------------------
G--------0-----------0-------------------2------------2------------------
D---2--------2-----------2---------3----------3-----------3--------------
A--(3)----------------------------(3)------------------------------------
E---3--3---3---3--3----3---3-------1--1----1----1--1----1---1------------

"as the winterstorm warning...    
E---------------------------------------------------------------------------------------
B---------------------------------------------------------------------------------------
G--------0----------0---------------------0------------0--------------------------------
D------------3----------3-----------3-----------3p2--------2p0---------------0h2--------
A---5---------------------------------------------------------------------------3-------
E---5--5---5---5--5---5---5---------3--3-----3----3--3---3---3--3--3--3--3---3----------


"but ever the way" 
E--------------------------------------------------------------------------
B--------------------------------------------------------12mute------------
G-----------------12--------------------------12mute-----------------------
D---10--------------------10-----------------------------------------------
A----------10--------------------------------------------------------------
E---12--12----12--12--12-----12---------8--8----8--8--8-----8--------------

"black as the kettle's"
E------------------------------------
B------------------------------------
G--------0-------------0-------------
D--------5-------------5-------------
A---7---------7-------------7--------
E---7--7---7-----7--7----7-----7-----

"the hypocrite pot"                 "often then more..."
E---------------------------------------------------------------------------------------
B---------------------------------------------------------------------------------------
G--------0----------0---------------------0------------0--------------------------------
D------------3----------3-----------3-----------3p2--------2p0---------------0h2--------
A---5---------------------------------------------------------------------------3-------
E---5--5---5---5--5---5---5---------3--3-----3----3--3---3---3--3--3--3--3---3----------


"so c'mere baby"
E-----------------0----------0----------0------------
B--------0---1----1----------1----------1------------
G---0--------2----2----------2----------2------------
D---2------------------------------------------------
A----------------------------------------------------
E---0--0-----1--1---1---1--1---1--1--1-----1---------

  "ridin our bikes..."                         "was it some..."
E-----------------0------------------------------------0-----------0---------------------------------------
B--------0--------1-----------0----------0-------------6-----------6-----------------0----------0----------
G---0-------------2-----------5----------5-------------5-----------5-----------------5----------5----------
D---2-------------------------5----------5-------------------------------------------5----------5----------
A----------------------------------------------------------------------------------------------------------
E---0--0-----1--1---1----3--3---3---3--3---3------5--5----5--5--5-----5--------3--3-----3--3--3----3-------

"well my right hand..."
E--------------------------------------------------------
B-------0-----------1-----------0-----------0------------
G---------0---------2-----------5-----------5------------
D-----2-------------------------5-----------5------------
A--------------------------------------------------------
E---0----------1--1-------3--3-----3--3--3-----3---------

"til it knocked me out"   
E-----------------0------------------------------------0-----------0---------------------------------------
B--------0--------1-----------0----------0-------------6-----------6-----------------0----------0----------
G---0-------------2-----------5----------5-------------5-----------5-----------------5----------5----------
D---2-------------------------5----------5-------------------------------------------5----------5----------
A----------------------------------------------------------------------------------------------------------
E---0--0-----1--1---1----3--3---3---3--3---3------5--5----5--5--5-----5--------3--3-----3--3--3----3-------



here are the lyrics to play along:

She sings of apple tress and blossoms and
she called me from dallas love field
as the winterstorm warning went on taunting me

when we met we were two bright-eyed alcoholics in
springtime in the year-of-our-lord
as we glanced the gilded edges of our identities

but ever the way
of the lover's lot
black as the kettle's the hypocrite pot
often, then more, more often than not

so c'mere baby
in the darkening hour
riding out bikes to the dive bar at the edge of town
was it some shrill and false persona
that was leading me around

well my right hand offended me while my left hand was waving free
til it knocks me out

did it? did it? did it? did it? did it? did it?

cross the street from the bar to the cathedral an
we heard verpers sung by choirs
and in ghostly vestments we waltzed down the aisle

to be honest babe, I never saw you coming, no
though I did believe the world to be a starry dome

did it did it did it

maybe we take a longer way
to a cosmic home, a place to stay
spinning lanterns in a field until the end of days

but ever the way
of the lover's lot
black as the kettle's the hypocrite pot
often, then more, more often than not

so c'mere baby
in the darkening hour
riding out bikes to the dive bar at the edge of town
was it some shrill and false persona
that was leading me around

well my right hand offended me while my left hand was waving free
til it knocks me out

did it? did it? did it? did it? did it? did it?

well my right hand offended me so I got down on bended knee
and I cut it off

Did I? Did I? Did I? Did I? Did I? Did I? Did I? Did I?

















E--------------------------------------------------------------------------------------
B--------------------------------------------------------------------------------------
G--------------------------------------------------------------------------------------
D--------------------------------------------------------------------------------------
A--------------------------------------------------------------------------------------
E--------------------------------------------------------------------------------------

            
            
Suggest correction
Creating personal tab
Creating personal tab
You can edit any tab online and save it as your Personal.

You can edit, replace or remove any tab part or add personal notes – all changes will be seen only by you.

Personal tabs can be accessed anytime from any device, even offline.
Learn more »
Give kudos to tab author, rate the tab!
1 2 3 4 5
comments
print report bad tab
guest
You may want to rate the tab now too:
select rating
Wanna post a correction for this tab? Suggest correction