Oops, an error
Loading. Please wait.

Through A Glass tab

version 1
version 1

Whole song

106 views 6 this week
no commentswrite comment
1 2 3 4 5
2 more votes to show rating
add to favorites
×
Save as Personal and add changes to this tab that will be seen only by you. Learn more ›
×
You can save this tab as Personal to edit and correct it or add notes. All changes will be seen only by you. Learn more »
launch autoscroll
font size
0
reset
how to read this tab
guitar tuner
edit
Autoscroll
slow
fast
+/-
esc
set tempo
stop
[Intro - fingerpicked]
Note: I'm not tabbing out the fingerpicking. It's relatively straightforward.
See his video for a demo: https://www.youtube.com/watch?v=jBs2kN78g1g
D |---0----4p0--2----4p2------|
A |---0----0----2----2--------|
F#|---2----2----2----2--------|
D |---4----4----4----4--------|
A |---0----0----2----2--------|
D |---0----0----2----2--------|

Through a glass of the bottle
All is green and bent
and seeing her is dark and soft
D |---0----0----0-------------|
A |---0----0----0-------------|
F#|---3----4----5-------------|
D |---4----4----4-------------|
A |---0----0----0-------------|
D |---4----4----5-------------|

I went through hell and back again
D |---0----0----0-------------|
A |---0----0----0-------------|
F#|---3----4----5-------------|
D |---4----4----4-------------|
A |---0----0----0-------------|
D |---4----4----5-------------|

She was my dearest friend
D |---0----0----0----0----------------|
A |---0----0----0----0----------------|
F#|---5----3----7----1----------------|
D |---4----4----0----0----------------|
A |---0----0----0----0----------------|
D |---5----4----7----2----------------|
And she will go to heaven

(N.C.)
So maybe I can see her again

[Verse 1]
(Note: start strumming on "again" above, focus on the low strings and emphasize the hammer-on)
D |---0----0------|
A |---0----0------|
F#|---0----1------|
D |---0----0------|
A |---0----0------|
D |---0----0h2----|
Oh, my car will barely start

D |---0----0------|
A |---0----0------|
F#|---0----1------|
D |---0----0------|
A |---0----0------|
D |---0----0h2----|
I gotta get it to Vermont

D |---0----0------|
A |---0----0------|
F#|---0----1------|
D |---0----0------|
A |---0----0------|
D |---0----0h2----|
She spent her summers in Bar Harbor on her own

D |---0----0------|
A |---0----0------|
F#|---0----0------|
D |---4----5------|
A |---0----0------|
D |---4----5------|
working in a restaurant

[Verse 2]
D |---0----0------|
A |---0----0------|
F#|---0----1------|
D |---0----0------|
A |---0----0------|
D |---0----0h2----|
And she had a lot of boyfriends

D |---0----0------|
A |---0----0------|
F#|---0----1------|
D |---0----0------|
A |---0----0------|
D |---0----0h2----|
I count the ones I know

D |---0----0------|
A |---0----0------|
F#|---0----1------|
D |---0----0------|
A |---0----0------|
D |---0----0h2----|
as I shudder through New Hampshire

D |---0----0------|
A |---0----0------|
F#|---0----0------|
D |---4----5------|
A |---0----0------|
D |---4----5------|
On the radio

[Chorus]
D |---0----0------|
A |---0----0------|
F#|---0----1------|
D |---0----0------|
A |---0----0------|
D |---0----0h2----|
God-God-God damn that girl was fine

D |---0----0------|
A |---0----0------|
F#|---0----1------|
D |---0----0------|
A |---0----0------|
D |---0----0h2----|
and I was glad to call her mine

D |---0----0------|
A |---0----0------|
F#|---0----1------|
D |---0----0------|
A |---0----0------|
D |---0----0h2----|
She weren't mine and I weren't hers

D |---0----0------|
A |---0----0------|
F#|---0----0------|
D |---4----5------|
A |---0----0------|
D |---4----5------|
I lost her at the five and dime

D |---0----0------|
A |---0----0------|
F#|---0----1------|
D |---0----0------|
A |---0----0------|
D |---0----0h2----|
She was talking to a six-five ex-marine

D |---0----0------|
A |---0----0------|
F#|---0----1------|
D |---0----0------|
A |---0----0------|
D |---0----0h2----|
He was living out of his truck

D |---0----0------|
A |---0----0------|
F#|---0----1------|
D |---0----0------|
A |---0----0------|
D |---0----0h2----|
She said he was very fragile

D |---0----0------|
A |---0----0------|
F#|---0----1------|
D |---0----0------|
A |---0----0------|
D |---0----0h2----|
I said I don't give a fuck

[Verse 3]
D |---0----0------|
A |---0----0------|
F#|---0----1------|
D |---0----0------|
A |---0----0------|
D |---0----0h2----|
We went up and we went down

D |---0----0------|
A |---0----0------|
F#|---0----1------|
D |---0----0------|
A |---0----0------|
D |---0----0h2----|
She wanted to get out of town

D |---0----0------|
A |---0----0------|
F#|---0----1------|
D |---0----0------|
A |---0----0------|
D |---0----0h2----|
We were on a rollerocaster, they go nowhere

D |---0----0------|
A |---0----0------|
F#|---0----0------|
D |---4----5------|
A |---0----0------|
D |---4----5------|
they just send you back on the ground

[Chorus]
D |---0----0------|
A |---0----0------|
F#|---0----1------|
D |---0----0------|
A |---0----0------|
D |---0----0h2----|

God-God-God damn that girl was fine
D |---0----0------|
A |---0----0------|
F#|---0----1------|
D |---0----0------|
A |---0----0------|
D |---0----0h2----|

and I was glad to call her mine
D |---0----0------|
A |---0----0------|
F#|---0----1------|
D |---0----0------|
A |---0----0------|
D |---0----0h2----|

She weren't mine and I weren't hers
D |---0----0------|
A |---0----0------|
F#|---0----0------|
D |---4----5------|
A |---0----0------|
D |---4----5------|

I lost her at the five and dime
D |---0----0------|
A |---0----0------|
F#|---0----1------|
D |---0----0------|
A |---0----0------|
D |---0----0h2----|

She was talking to a six-five ex-marine
D |---0----0------|
A |---0----0------|
F#|---0----1------|
D |---0----0------|
A |---0----0------|
D |---0----0h2----|

He was living out of his truck
D |---0----0------|
A |---0----0------|
F#|---0----1------|
D |---0----0------|
A |---0----0------|
D |---0----0h2----|

She said he was very fragile
D |---0----0------|
A |---0----0------|
F#|---0----0------|
D |---4----5------|
A |---0----0------|
D |---4----5------|

I said I don't give a..


************************************

| p  Pull-off
| h  Hammer-on

************************************
Suggest correction
Creating personal tab
Creating personal tab
You can edit any tab online and save it as your Personal.

You can edit, replace or remove any tab part or add personal notes – all changes will be seen only by you.

Personal tabs can be accessed anytime from any device, even offline.
Learn more »
Give kudos to tab author, rate the tab!
1 2 3 4 5
comments
print report bad tab
guest
You may want to rate the tab now too:
select rating
Wanna post a correction for this tab? Suggest correction