Oops, an error
Loading. Please wait.

Through A Glass tab

version 2
version 2

Whole song

199 views 6 this week
no commentswrite comment
1 2 3 4 5
3 more votes to show rating
add to favorites
×
Save as Personal and add changes to this tab that will be seen only by you. Learn more ›
×
You can save this tab as Personal to edit and correct it or add notes. All changes will be seen only by you. Learn more »
launch autoscroll
font size
0
reset
how to read this tab
guitar tuner
edit
Autoscroll
slow
fast
+/-
esc
set tempo
stop
Tuning: Open D
Capo 1st fret

For the sake of understanding, I have named the chords only by their root note.
For reference, I'd advise to watch this live performance: https://www.youtube.com/watch?v=jBs2kN78g1g


Intro:
    D                                  E
D--------------4p0----------------------------------4p2-----------------------
A-------------------0------------------------------------2--------------------
F#------2--------------2-2-----------------2----------------2--2--------------
D-----4---4--------------4--4------------4---4-----------------4--4-----------
A-----------------------------------------------------------------------------
D---0-------0--------------------------2--------2-----------------------------


"I went through hell and back again" and "she was my dearest friend"
     F#m               F#               G
D------------------------------------------------------------------------------
A------------------------------------------------------------------------------
F#--------3------3--------4------4----------5------5--------5------5-----------
D-------4------4--------4------4----------5------5--------5------5-------------
A------------------------------------------------------------------------------
D----4-------4--------4------4----------5------5--------5------5---------------

"but she will go..."
     G                F#m            A                   E*
D------------------------------------------------------------2-------------------------------------
A-------------------------------------------------------------------0-----------------0------------
F#-------5------5--------3------3--------7-------7--------1-------1----------1------1--------------
D------5------5--------4------4--------7-------7---------------------------2-----------------------
A--------------------------------------------------------------------------------------------------
D----5------5--------4------4--------7-------7----------2-------2-------2--------2-----------------


Chords:
      D     E     F#m     G
D-----0----2p0----(0)-----0----------
A-----0-----0-----0/5-----0----------
F#----0-----1-----0/3----0/5---------
D-----0----(0)-----0------0----------
A-----0-----x------x------x----------
D-----0-----2------4------5----------


Intro:
D     D      E      E
D     D      E      E

D                      E
Through a glass of the bottle
D                E
All is green and bent
D                 E
and seeing her is dark and soft

  F#m          F#       G
I went through hell and   back again
F#m   F#     G
She   was my   dearest friend
    G        F#m   A      E*
And she will go to hea----ven... so maybe I can see her again


D      E     D      E
D      E     F#m    G

        D               E
Well my car will barely start
        D             E
I gotta get it to Vermont
              D              E  (in the performance he stays on E, you can move to G as well)
She spent her summers in Bar Harbor on her own working in a restaurant
        D            E
And she had a lot of boyfriends
  D                E
I count the ones I know
     D                   E
as I shudder through New Hampshire ?always heardly? on the radio

            D                  E
God-God-God damn that girl was fine
          D                E
and I was glad to call her mine
D                    F#m                G
She weren't mine and I weren't hers - I lost her at the five and dime
                     D         E
She was talking to a 6'5" ex-marine
        D              E
Who was living out his truck
         D           E
She said he was very fragile, I said I don't give a fuck

        D              E
We went up and we went down
    D                    E
She wanted to get out of town
             D                 F#m                        G
We were on a rollercoaster and they go nowhere; they just send you back on the ground


            D                  E
God-God-God damn that girl was fine
          D                E
and I was glad to call her mine
D                    F#m                G
She weren't mine and I weren't hers - I lost her at the five and dime
                     D         E
She was talking to a 6'5" ex-marine
        D              E
Who was living out his truck
         D           E               E
She said he was very fragile, I said I don't give...

            
            
Suggest correction
Creating personal tab
Creating personal tab
You can edit any tab online and save it as your Personal.

You can edit, replace or remove any tab part or add personal notes – all changes will be seen only by you.

Personal tabs can be accessed anytime from any device, even offline.
Learn more »
Give kudos to tab author, rate the tab!
1 2 3 4 5
comments
print report bad tab
guest
You may want to rate the tab now too:
select rating
Wanna post a correction for this tab? Suggest correction