Oops, an error
Loading. Please wait.

Moon River chords

version 9
version 9

Whole song

  • First version featuring the original recording wit... Show more
  • Simpler chords with easier transitions, more of a melancholy sound.
  • After checking and reviewing many others Guitar Ch... Show more
46 views 3 this week
no commentswrite comment
1 2 3 4 5
3 more votes to show rating
add to favorites
×
Save as Personal and add changes to this tab that will be seen only by you. Learn more ›
×
You can save this tab as Personal to edit and correct it or add notes. All changes will be seen only by you. Learn more »
launch autoscroll
font size
0
reset
transpose
0
reset
simplify chords
display chords
guitar tuner
edit
Autoscroll
slow
fast
+/-
esc
set tempo
stop
Author
Difficulty
About this tab version
After checking and reviewing many others Guitar Chords on this song I am certain that this version is the closest that can gets to the original version played in Guitar. Besides I am providing the chords and the tabs, how ugly is that? Moreover my version sound beautiful more beautiful than the others versions. Was this info helpful? Yes No
Strumming
There is no strumming pattern for this song yet. and get +5 IQ
Moon River is a song composed by Henry Mancini with lyrics written by Johnny Mercer in 1961. It received 
an Academy Award for Best Original Song. Mancini won the 1962 Grammy Award for Record of the Year and 
Mercer the Grammy Award for Song of the Year. Mercer and Mancini wrote the song for Audrey Hepburn to 
fit her vocal range. The song is the soundtrack of the legendary movie “Breakfast at Tiffany's”. The 
song reached in late 1961 the number 11 on the Billboard Hot 100.


C6 000555       
D6 000777       
G 320033        
Emadd9 024000       
G/B 0.10.9.7.8.x        
Gdim7 002323
C/G 332010      
G7 000767       
Adim 000545     
D7 557575       
E7 020100       
Em7 020033
Bm7 224232      
B7 797877       
Am7/C 005555    
Em6 045450              

             

                   *** PAY ATTENTION TO THE CHORDS STRUCTURE ***


[INTRO]   
C6   D6


[Verse 1]
G    Emadd9
Moon River 
C/G          G
Wider than a mile 
C/G                 G
I’m crossing you in style
Am7/C     B7
S-o-m-e-d-a-y 
Emadd9    G7 
Old dream maker
C/G       Adim   
You heart Breaker   
Emadd9   Em7    Gdim7
Wherever you’re going 
Bm7   E7    
I’m going 
Am7/C    D7  
your ... way


[Verse 2]
G       Emadd9
Two drifters 
C/G            G
Off to see the world 
C/G                   G
There's such a lot of world 
Am7/C  B7
To see    
Emadd9  Em7
We’re after
Em6
The same
C/G       G
Rainbow’s end
C/G               G
Waiting round the bend 
C/G            G
My Huckleberry friend
Emadd9  Am7/C  D7
Moon ..... River         
G  C/G  Adim  G/B
And ......... me 


[Guitar Tabs]

e ------\5--3--2--0--------------2--0-----------------------------------------------------|
B ---\3--------------3--1--3-----------3--1--3--------------------------------------------|
G ----------------------------0-----------------0--\2-------------------------------------|
D ----------------------------------------------------------------------------------------|
A ----------------------------------------------------------------------------------------|
E ----------------------------------------------------------------------------------------|


e --------------------------------------------3--2--0--2--0-----0-------------------------|
B ----0--------\3--0--------3--0--------0--3-----------------3----------------------------|
G -------0------------2--0--------2--0----------------------------------------------------|
D ----------------------------------------------------------------------------------------|
A ----------------------------------------------------------------------------------------|
E ----------------------------------------------------------------------------------------|


e ------\5--3--2--0--------------2--0-----------------------------------------------------|
B ---\3--------------3--1--3-----------3--1--3--------------------------------------------|
G ----------------------------0-----------------0--\2-------------------------------------|
D ----------------------------------------------------------------------------------------|
A ----------------------------------------------------------------------------------------|
E ----------------------------------------------------------------------------------------|


e ------------------3--\5--3------------2--0---------------2--0---------------------------|
B ---0------0---3--------------\3-------------3--1--3------------3--1--3-----1-----0------|
G ------0----------------------------0------------------0-----------------0-----2------0--|
D ----------------------------------------------------------------------------------------|
A ----------------------------------------------------------------------------------------|
E ----------------------------------------------------------------------------------------|  

                            *** Thank you for rating this song ***



            
            
Suggest correction
Creating personal tab
Creating personal tab
You can edit any tab online and save it as your Personal.

You can edit, replace or remove any tab part or add personal notes – all changes will be seen only by you.

Personal tabs can be accessed anytime from any device, even offline.
Learn more »
Give kudos to tab author, rate the tab!
1 2 3 4 5
comments
print report bad tab
guest
You may want to rate the tab now too:
select rating
Wanna post a correction for this tab? Suggest correction