Oops, an error
Loading. Please wait.
We have Chord Pro version of The Pink Panther Theme.
It's the closest thing you can get to the original song and it has interactive parts. Check out the tab »
×

The Pink Panther Theme tab

version 18
version 18

Whole song

415 views 3 this week
no commentswrite comment
1 2 3 4 5
3 more votes to show rating
add to favorites
×
Save as Personal and add changes to this tab that will be seen only by you. Learn more ›
×
You can save this tab as Personal to edit and correct it or add notes. All changes will be seen only by you. Learn more »
launch autoscroll
font size
0
reset
how to read this tab
guitar tuner
backing track
0:00
0:00
edit
Autoscroll
slow
fast
+/-
esc
set tempo
stop
Author
Difficulty
Unregistered
intermediate
This is a guitar tab of the theme song in it's entirety. I transposed to the horn section into a guitar part.
However during the sax solo, there actually is a guitar part in the original song, so I tabbed that rather
than the sax solo.

h hammer-on
p pull-off
V lot of vibrato
v hint of vibrato
/ slide up
\slide down
                                                           Intro
e|-----------------------------------------------------------------------------------------------------------|
B|-----------------------------------------------------------------------------------------------------------|
G|-----------------------------------------------------------------------------------------------------------|
D|-----------------------------------------------------------------------------------------------------------|
A|-3h5--5h7------3h5--5h7------3h5--5h7------7p6--5p3------3h5--5h7------5h6--7h8------3h5--5h7------7p6--5p3|
E|-----------------------------------------------------------------------------------------------------------|

  ----------------------------------------------------------------------------------------------------------|
  ----------------------------------------------------------------------------------------------------------|
  ----------------------------------------------------------------------------------------------------------|
  ----------------------------------------------------------------------------------------------------------|
  -------------------------------------------------------------------------------------9--------------------|
  -3h5--5h7-------------------------------------------------------------------------------------------------|

                                                         Mid-Section
|------------------------------------------------------------------------------------------------------------|
|------------------------------------------------------------------------------------------------------------|
|--------------------7-7/10V---8-----------------------------------------------------------------------------|
|----------7-8v---10-------------11------------8h10----8----------11h13----11--------------------------------|
|--9-10\----------------------------8v\------10-----10--10------13------13---13---10--8---------8--8/10\-----|
|------------------------------------------------------------------------------------------------------------|

 ------------------------------------------------------------------------66-6--55-5----3\-------------------|
 ------------------------------------------------------------------------66-6--55-5---3\--------------------|
 ------------------------------------------------------------------------66-6--55-5--3\---------------------|
 ----8-10-11--11-10-8------8-----8-10-10/11-11-10-8---------------------------------------------------------|
 --10-----------------10-8-----10--------------------10v---8------------------------------------------------|
 ------------------------------------------------------------10\--------------------------------------------|

                                                          Sax solo
|-12----15\--------------------------------------------------------------------------------------------------|
|-12----15\----------77--7-----8--8---10-----8---7----7--7--7-5/8---8--8--6--6-6--7----77--7---7-----3-3--5-3|
|--9----12\----------66--6-----7--7----9-----7---6---6---6--6-4/7---7--7--5--5-5--6----66--6---6-----2-2--4-2|
|--------------------55--5-----6--6----8-----6---5--5----5--5-3/6---6--6--4--4-4--5----55--5---5-------------|
|------------------------------------------------------------------------------------------------------------|
|------------------------------------------------------------------------------------------------------------|

 -----------------------------------------------------------------------------------------------------------|
 -8\7-----7------6------5-----------------------------------------------------------------------------------|
 -7\6----6------5------4------------------------------------------------------------------------------------|
 -6\5---5------4------3-------------------------------------------------------------------------------------|
 -----------------------------------------------------------------------------------------------------------|
 -----------------------------------------------------------------------------------------------------------|

                                                            Outro
 |---------------------------------------------------------------------------15\-----------------------------|
 |---------------------------------------------------------------------------15\-----------------------------|
 |---------------------------------------------------------------------------15\-----------------------------|
 |---------------------------------------------------------------------------15\-----------------------------|
 |-3h5--5h7------3h5--5h7------7p6--5p3------3h5--5h7------5h6--7h8------------------------------------------|
 |-----------------------------------------------------------------------------------------------------------|


  ------------------------------------------------------------------------------------15\-------------------|
  ------------------------------------------------------------------------------------15\-------------------|
  ------------------------------------------------------------------------------------15\-------------------|
  ------------------------------------------------------------------------------------15\-------------------|
  -3h5--5h7------7p6--5p3------3h5--5h7--------------7----7p6--5p3--3h5--5h7--------------------------------|
  ----------------------------------------------------------------------------------------------------------|

            
            
Suggest correction
Creating personal tab
Creating personal tab
You can edit any tab online and save it as your Personal.

You can edit, replace or remove any tab part or add personal notes – all changes will be seen only by you.

Personal tabs can be accessed anytime from any device, even offline.
Learn more »
Give kudos to tab author, rate the tab!
1 2 3 4 5
comments
print report bad tab
guest
Wanna post a correction for this tab? Suggest correction