Oops, an error
Loading. Please wait.
We have Chord Pro version of The Pink Panther Theme.
It's the closest thing you can get to the original song and it has interactive parts. Check out the tab »
×

The Pink Panther Theme tab

version 3
version 3

Whole song

205,879 views 93 this week
23 commentsread comments
1 2 3 4 5
x 76
add to favorites
×
Save as Personal and add changes to this tab that will be seen only by you. Learn more ›
×
You can save this tab as Personal to edit and correct it or add notes. All changes will be seen only by you. Learn more »
launch autoscroll
font size
0
reset
how to read this tab
guitar tuner
backing track
0:00
0:00
edit
Autoscroll
slow
fast
+/-
esc
set tempo
stop
Author
Unregistered
[Intro]

e|-----------------------------------------|    
B|-----------------------------------------|    
G|-----------------------------------------|    
D|-----------------------------------------|    
A|--4-5-6-7------4-5-6-7------7-6-5-4----2-| X2 
E|----------7--0---------7--0----------2---|    


Fast bit(Verse thing)WHATEVER


[Part A]

e|-------------------------------------------------------|
B|-------------------------------------------------------|
G|-----------------5p4--4\3-3\2-0------------------------|
D|---------4h5---4h5---5---------2-0h2-------------------|
A|--4h5-6h7---5h7-----7----------------------------------|
E|-------------------------------------------------------|

You don't have to use hammer ons or pick offs it's just easier, sounds a lot
better and is the proper way of doing it ( unless you have a bass then it's
probably done without all the hammer ons and pick offs.


[Part B]

e|--------------------------------------------------------|
B|--------------------------------------------------------|
G|-----------------5p4--8\7b-3\2-0------------------------|
D|--------4h5---4h5----5----------2-0h2-------------------|
A|--4h5-6h7--5h7-----7------------------------------------|
E|--------------------------------------------------------|

don't use bend if you dont want to but like i said earlier it sounds a lot better
and b= bend for full not half other wise it sounds bad ( trying my hardest not to
swear)


[Solo]

e|------0--------------------------------------------------|
B|--------3-0----------------------------------------------|
G|------------2-0---3p2-3p2-3p2-3p2-0----------------------|
D|----------------2------------------2-0h2-2---------------|
A|--4567---------------------------------------------------|
E|---------------------------------------------------------|


Chords during intro

a heavly muted G5

e|------------------------------------------------------------|
B|------------------------------------------------------------|
G|------------------------------------------------------------|
D|-5-5-5-5-5-5-5-5-5-5-5-5-5-5-5-5----------------------------|
A|-5-5-5-5-5-5-5-5-5-5-5-5-5-5-5-5----------------------------|
E|-3-3-3-3-3-3-3-3-3-3-3-3-3-3-3-3----------------------------|
   1 e + a 2 e + a 3 e + a 4 e + a


Chords During fast bit

F#major   A   B#major

            
            
Suggest correction
Creating personal tab
Creating personal tab
You can edit any tab online and save it as your Personal.

You can edit, replace or remove any tab part or add personal notes – all changes will be seen only by you.

Personal tabs can be accessed anytime from any device, even offline.
Learn more »
comments
print report bad tab
23 comments total. Showing first comments.
0 reply
FbM-Biker 30 Aug 18, 2004 08:00 PM

good tab.

0 reply
raptorexp 10 Mar 07, 2005 07:00 PM

great tab, easy to play and sounds like the original!
great job

0 reply
raptorexp 10 Mar 07, 2005 07:00 PM

great tab, easy to play and sounds like the original!
great job

guest
Wanna post a correction for this tab? Suggest correction