Oops, an error
Loading. Please wait.
We have Chord Pro version of The Pink Panther Theme.
It's the closest thing you can get to the original song and it has interactive parts. Check out the tab »
×

The Pink Panther Theme tab

version 6
version 6

Whole song

583,663 views 207 this week
33 commentsread comments
1 2 3 4 5
x 420
add to favorites
×
Save as Personal and add changes to this tab that will be seen only by you. Learn more ›
×
You can save this tab as Personal to edit and correct it or add notes. All changes will be seen only by you. Learn more »
launch autoscroll
font size
0
reset
how to read this tab
guitar tuner
backing track
0:00
0:00
edit
Autoscroll
slow
fast
+/-
esc
set tempo
stop
Pink Panther Theme
Tabbed by Wes Chennault

The other tabs are pretty close, but this is what I got.

e|---------------|
B|---------------|
G|---------------|   x2
D|---------------|
A|-4/5-6/7-------|
E|----------7--0-|

e|--------------------------------------------|
B|--------------------------------------------|
G|-----------------------5p4------------------|
D|----------4h5------4h5------5-8-7---5-------|
A|-4/5-6/7-------6h7--------7-----------7-5-7-|
E|--------------------------------------------|

e|-----------------------------------|
B|-----------------------------------|
G|-----------------------5p4----9-8~-|
D|----------4h5------4h5------5------|
A|-4/5-6/7-------6h7--------7--------|
E|-----------------------------------|

e|--------------------------------------------|
B|--------------------------------------------|
G|-----------------------5p4------------------|
D|----------4h5------4h5------5-8-7---5-------|
A|-4/5-6/7-------6h7--------7-----------7-5-7-|
E|--------------------------------------------|

e|-----------------------------------------------|
B|-----------------------------------------------|
G|---------9-7-----------------------------------|
D|-------------9-7-5---8p7-8p7-8p7-8p7-5---------|
A|-4/5-6/7-----------7-------------------7-5-7-7-|
E|-----------------------------------------------|

Peace.

*******************************

| h     hammer-on
| p     pull-off
| /     slide up

*******************************

            
            
Suggest correction
Creating personal tab
Creating personal tab
You can edit any tab online and save it as your Personal.

You can edit, replace or remove any tab part or add personal notes – all changes will be seen only by you.

Personal tabs can be accessed anytime from any device, even offline.
Learn more »
comments
print report bad tab
33 comments total. Showing first comments.
+15 reply
Rivers 167 Jun 03, 2005 08:00 PM

e|--------------------------------------------|
B|--------------------------------------------|
G|-----------------------5p4------------------|
D|----------4h5------4h5------5-8-7---5-------|
A|-4/5-6/7-------6h7--------7-----------7-5-7-|
E|--------------------------------------------|

it should be 598 not 587 but other than that good tab

+6 reply
Killer Gipsy 10 Feb 12, 2007 10:57 AM

It?s very good tab. Good work!

+1 reply
Zhuey 75 Sep 28, 2007 12:18 PM

Awesome tab well done!

guest
You may want to rate the tab now too:
select rating
Wanna post a correction for this tab? Suggest correction