Oops, an error
Loading. Please wait.

A New Ground In Em Tab

617 views 3 this week
no commentswrite comment
1 2 3 4 5
please rate
add to favorites
launch autoscroll
font size
0
reset
how to read this tab
guitar tuner
Autoscroll
slow
fast
+/-
esc
set tempo
stop
Help us to improve Ultimate-Guitar.com Take our survey!
×
Author
A New Ground - Henry Purcell (1659-1695)

Tuning: E A D G B E   -   Time Signature: 2/2

A lovely little baroque piece with tons of feeling. Somewhat tricky to
make it sound flawless but with good acoustics and a good grasp on those
hammer-ons and pull-offs it sounds wonderful. I purposely avoided using
open strings in many sections for better tone opportunities. Choose
whatever fingerings and note placements you find best.

 |               |                |               |                
|--0-------7-----7-----5---3-----|--0---3---2---0-----------------|
|------8-------8---7-----0-----7-|----0-------------4---2---4---0-|
|--------0---4-------------------|--------2-----------0-----------|
|--------------------4-----------|----------------------------4---|
|----7-----------6-----------5---|4-----------3---2-------0-------|
|0-------------------------------|--------------------------------|

 |               |                |               |                
|--0-------2-------3-----7-----7-|53553-3-5-3-2-0-7-------3232----|
|------0-----------5-------------|--3---------0-----------0-------|
|--------------2---4-------------|--------0-----------------------|
|----2-------1---2---------------|----2---------------4-----------|
|------------------------0-------|----------------6-----------5---|
|3-------2-----------3-------7---|0-------------------------------|

 |               |                |               |                
|--------5-----5-5-------0-------|0-----2-232-0-2-3---------------|
|------------------4---4---4-2-0-|--------------------------------|
|----4---2-----------------------|--------------------------------|
|--------------------5-------4---|----2-------1---2---------------|
|4-----------3---2-------0-------|------------------------0---2---|
|--------------------------------|3-------2-----------3-----------|

 |               |                |               |                
|--5-2-3-5353--2-2-------------2-|--0-----0-0---0-0--0------------|
|------------0-----------0-------|----0----3--------3-1-0-------3-|
|--------0-----------------------|--------2----------20---5-------|
|----2-----------1---4-------0---|----------------------------4---|
|--------------------------------|4-----------3---2-------0-------|
|0-------------------------------|--------------------------------|

 |               |                |               |                
|--------5-----7-5-3-2-0-3-230---|0-------7---2-2-3232--------7---|
|1-01-----------------------2--4-|------------0-----------0-------|
|----2-0-------------------------|----5---0-----------------------|
|---42-----------2---------------|----------------1---4-----------|
|------------6-----------0---2---|----7-----------------------5---|
|3-------2-----------3-----------|0-------------------------------|

 |               |                |               |                
|7---5-3-2-3-2-0---------0-------|0-------3-2-----3---2-0---------|
|----0-----------4---------4-2-0-|------------0-----------4-2-0---|
|--------2-----------0-----------|------------------------------2-|
|----------------------------4---|----2-------1---2---------------|
|4-----------3---2-------0-------|------------------------0---2---|
|--------------------------------|3-------2-----------3-----------|

 |               |                |               |                
|--------323---3-3---2-------4---|5-----3-2-3-2-0-7-------0-------|
|------------0-----------0-------|----0---------------------4-2-0-|
|2-00----0-----------------------|--------2-----------0-----------|
|--2-4-2---------1---4-------0---|----------------------------4---|
|--------------------------------|4-----------3-----------0-------|
|0-------------------------------|----------------7---------------|

 |               |                |               |                
|0---2-3-5-3-5-2-3-5-7---5-3-230-|0---------3-------2---5---3---2-|
|-----------------------------2--|------------0-----------0-------|
|--------------------------------|--------0-----------------------|
|----2-----------2---------------|----2-----------1---4-------0---|
|------------6-----------0---2---|--------------------------------|
|3-------2-----------3-----------|0-------------------------------|

 |               |                |               |                
|0-------------------------------|-------------------------------||
|--------------------------------|-------------------------------||
|--------------------------------|-------------------------------||
|--------------------------------|-------------------------------||
|--------------------------------|-------------------------------||
|0-------------------------------|-------------------------------||

Suggest correction
What's this?
You can suggest a correction to this tab. Community and Mods will review your correction and vote to approve or reject it.
comments
We did not receive enough feedback on this tab! Please rate:
print report bad tab
1 2 3 4 5
guest
You may want to rate the tab now too:
select rating
Please do not post tabs as comments. Select "correction" instead!