Oops, an error
Loading. Please wait.

Intricacy bass

28 views 1 this week
no commentswrite comment
1 2 3 4 5
3 more votes to show rating
add to favorites
×
Save as Personal and add changes to this tab that will be seen only by you. Learn more ›
×
You can save this tab as Personal to edit and correct it or add notes. All changes will be seen only by you. Learn more »
launch autoscroll
font size
0
reset
guitar tuner
edit
Autoscroll
slow
fast
+/-
esc
set tempo
stop
Difficulty
http://www.myspace.com/herbloodydescent

Her Bloody Descent

Intricacy [if i could steal]

EADG

bassage

intro: difficult to space out on tab but it makes sense with the track playing :)
|------------------------------------|------------------------------------|
|---------------------------6-------4|------------------------------------|
|-1-------4--------3-----------------|---4----3----1-----1--1--------1--1-|
|------------------------------------|------------------------------------|

|------------------------------------|------------------------------------|
|---------------------------6-------4|------------------------------------|
|-1-------4--------3-----------------|---4----3----1-----1--1--------1--1-|
|------------------------------------|------------------------------------|


|------------------------------------|------------------------------------|
|---------------------------6-------4|------------------------------------|
|-1-------4--------3-----------------|---4----3----1-----1--1--------1--1-|
|------------------------------------|------------------------------------|

|------------------------------------|------------------------------------|
|---------------------------6-------4|------------------------------------|
|-1-------4--------3-----------------|---4----3----1-----1--1--------1--1-|
|------------------------------------|------------------------------------|

pre verse riff
|------------------------------------|------------------------------------|
|------------------------------------|------------------------------------|
|-1------1-----------1--1--1--1--1---|--------------1---1----1-----1----1-|
|------------------------------------|------------------------------------|
                                                          *or 1st fret G
|------------------------------------|------------------------------------|
|------------------------------------|-------------------------6*---------|
|---------------1---1----1---1----1--|-----------1----4p1-----------------|
|------------------------------------|------------------------------------|
|------------------------------------|------------------------------------|
|------------------------------------|------------------------------------|
|-1------1-----------1--1--1--1--1---|--------------1---1----1-----1----1-|
|------------------------------------|------------------------------------|
                                                          *or 1st fret G
|------------------------------------|------------------------------------|
|------------------------------------|-------------------------6*---------|
|---------------1---1----1---1----1--|-----------1----4p1-----------------|
|------------------------------------|------------------------------------|

|------------------------------------|------------------------------------|
|------------------------------------|------------------------------------|
|-1------1-----------1--1--1--1--1---|--------------1---1----1-----1----1-|
|------------------------------------|------------------------------------|
                                                          *or 1st fret G
|------------------------------------|------------------------------------|
|------------------------------------|-------------------------6*---------|
|---------------1---1----1---1----1--|-----------1----4p1-----------------|
|------------------------------------|------------------------------------|

|------------------------------------|------------------------------------|
|------------------------------------|------------------------------------|
|-1------1-----------1--1--1--1--1---|--------------1---1----1-----1----1-|
|------------------------------------|------------------------------------|
                                                          *or 1st fret G
|------------------------------------|------------------------------------|
|------------------------------------|-------------------------6*---------|
|---------------1---1----1---1----1--|-----------1----4p1-----------------|
|------------------------------------|------------------------------------|

verse
|------------------------------------|------------------------------------|
|-------6---6---6---6---6---6---6----|-------6---6---6---6---6---6---6----|
|------------------------------------|------------------------------------|
|-6--6----------------------------8p7|-6--6----------------------------8p7|

|------------------------------------|------------------------------------|
|-------6---6---6---6---6---6---6----|------------------------------------|
|------------------------------------|-4-------6--------8---------9-------|
|-6--6----------------------------8p7|------------------------------------|

|------------------------------------|------------------------------------|
|-------6---6---6---6---6---6---6----|-------6---6---6---6---6---6---6----|
|------------------------------------|------------------------------------|
|-6--6----------------------------8p7|-6--6----------------------------8p7|

|------------------------------------|------------------------------------|
|-------6---6---6---6---6---6---6----|------------------------------------|
|------------------------------------|-4-------6--------8---------9-------|
|-6--6----------------------------8p7|------------------------------------|
break
|------------------------------------|------------------------------------|
|------------------------------------|------------------------------------|
|-0----------------------------------|-0----------------------------------|
|------------------------------------|------------------------------------|

chorus
|------------------------------------|------------------------------------|
|------------------------------------|------------------------------------|
|-1-1-1-1-----------4p1--1-----3-----|-0-0-0-0---------3p0--0------2------|
|------------------------------------|------------------------------------|

|------------------------------------|------------------------------------|
|------------------------------------|------------------------------------|
|-3-3-3-3-----------6p3--3-----5-----|-1-1-1-1---------4p1--1------3------|
|------------------------------------|------------------------------------|

|------------------------------------|------------------------------------|
|------------------------------------|------------------------------------|
|-1-1-1-1-----------4p1--1-----3-----|-0-0-0-0---------3p0--0------2------|
|------------------------------------|------------------------------------|

|------------------------------------|------------------------------------|
|------------------------------------|------------------------------------|
|-3-3-3-3-----------6p3--3-----5-----|-1-1-1-1---------4p1--1------3------|
|------------------------------------|------------------------------------|

|------------------------------------|------------------------------------|
|------------------------------------|------------------------------------|
|-0----------------------------------|-0----------------------------------|
|------------------------------------|------------------------------------|

|------------------------------------|------------------------------------|
|------------------------------------|------------------------------------|
|-0------------------------------mute|------------------------------------|
|------------------------------------|------------------------------------|

pre verse riff
|------------------------------------|------------------------------------|
|------------------------------------|------------------------------------|
|-1------1-----------1--1--1--1--1---|--------------1---1----1-----1----1-|
|------------------------------------|------------------------------------|
                                                          *or 1st fret G
|------------------------------------|------------------------------------|
|------------------------------------|-------------------------6*---------|
|---------------1---1----1---1----1--|-----------1----4p1-----------------|
|------------------------------------|------------------------------------|
|------------------------------------|------------------------------------|
|------------------------------------|------------------------------------|
|-1------1-----------1--1--1--1--1---|--------------1---1----1-----1----1-|
|------------------------------------|------------------------------------|
                                                          *or 1st fret G
|------------------------------------|------------------------------------|
|------------------------------------|-------------------------6*---------|
|---------------1---1----1---1----1--|-----------1----4p1-----------------|
|------------------------------------|------------------------------------|

|------------------------------------|------------------------------------|
|------------------------------------|------------------------------------|
|-1------1-----------1--1--1--1--1---|--------------1---1----1-----1----1-|
|------------------------------------|------------------------------------|
                                                          *or 1st fret G
|------------------------------------|------------------------------------|
|------------------------------------|-------------------------6*---------|
|---------------1---1----1---1----1--|-----------1----4p1-----------------|
|------------------------------------|------------------------------------|

|------------------------------------|------------------------------------|
|------------------------------------|------------------------------------|
|-1------1-----------1--1--1--1--1---|--------------1---1----1-----1----1-|
|------------------------------------|------------------------------------|
                                                          *or 1st fret G
|------------------------------------|------------------------------------|
|------------------------------------|-------------------------6*---------|
|---------------1---1----1---1----1--|-----------1----4p1-----------------|
|------------------------------------|------------------------------------|

verse
|------------------------------------|------------------------------------|
|-------6---6---6---6---6---6---6----|-------6---6---6---6---6---6---6----|
|------------------------------------|------------------------------------|
|-6--6----------------------------8p7|-6--6----------------------------8p7|

|------------------------------------|------------------------------------|
|-------6---6---6---6---6---6---6----|------------------------------------|
|------------------------------------|-4-------6--------8---------9-------|
|-6--6----------------------------8p7|------------------------------------|

|------------------------------------|------------------------------------|
|-------6---6---6---6---6---6---6----|-------6---6---6---6---6---6---6----|
|------------------------------------|------------------------------------|
|-6--6----------------------------8p7|-6--6----------------------------8p7|

|------------------------------------|------------------------------------|
|-------6---6---6---6---6---6---6----|------------------------------------|
|------------------------------------|-4-------6--------8---------9-------|
|-6--6----------------------------8p7|------------------------------------|
break
|------------------------------------|------------------------------------|
|------------------------------------|------------------------------------|
|-0----------------------------------|-0----------------------------------|
|------------------------------------|------------------------------------|

chorus
|------------------------------------|------------------------------------|
|------------------------------------|------------------------------------|
|-1-1-1-1-----------4p1--1-----3-----|-0-0-0-0---------3p0--0------2------|
|------------------------------------|------------------------------------|

|------------------------------------|------------------------------------|
|------------------------------------|------------------------------------|
|-3-3-3-3-----------6p3--3-----5-----|-1-1-1-1---------4p1--1------3------|
|------------------------------------|------------------------------------|

|------------------------------------|------------------------------------|
|------------------------------------|------------------------------------|
|-1-1-1-1-----------4p1--1-----3-----|-0-0-0-0---------3p0--0------2------|
|------------------------------------|------------------------------------|

|------------------------------------|------------------------------------|
|------------------------------------|------------------------------------|
|-3-3-3-3-----------6p3--3-----5-----|-1-1-1-1---------4p1--1------3------|
|------------------------------------|------------------------------------|

pre solo
|------------------------------------|------------------------------------|
|------------------------------------|------------------------------------|
|-0------------------------------mute|------------------------------------|
|------------------------------------|------------------------------------|

outro [simples] if you dont get it just play single notes :D
|------------------------------------|------------------------------------|
|------------------------------------|------------------------------------|
|-1----------------------------------|-1---1---1---1----------------------|
|------------------------------------|------------------------------------|

|------------------------------------|------------------------------------|
|------------------------------------|------------------------------------|
|--------------------------1----1----|--1--------1--1--1--1------1--------|
|------------------------------------|------------------------------------|

|------------------------------------|------------------------------------|
|------------------------------------|------------------------------------|
|-0----------------------------------|-0---0---0---0----------------------|
|------------------------------------|------------------------------------|

|------------------------------------|------------------------------------|
|------------------------------------|------------------------------------|
|--------------------------0----0----|--0--------0--0--0--0------0--------|
|------------------------------------|------------------------------------|

            
            
Suggest correction
Creating personal tab
Creating personal tab
You can edit any tab online and save it as your Personal.

You can edit, replace or remove any tab part or add personal notes – all changes will be seen only by you.

Personal tabs can be accessed anytime from any device, even offline.
Learn more »
Give kudos to tab author, rate the tab!
1 2 3 4 5
comments
print report bad tab
guest
Wanna post a correction for this tab? Suggest correction