Oops, an error
Loading. Please wait.

Pretty Things Tab

version 1
version 1

Intro

Whole song

Interactive

806 views 1 this week
no commentswrite comment
1 2 3 4 5
2 more votes to show rating
add to favorites
launch autoscroll
font size
0
reset
how to read this tab
guitar tuner
Autoscroll
slow
fast
+/-
esc
set tempo
stop
Help us to improve Ultimate-Guitar.com Take our survey!
×
Tuning
C# G# C# F# A# D#
Half Step down (drop c#)

Guitar 1:
|------------------------------|
|------------------------------|
|------------------------------|  play 2 times alone then
|-----7-----7------6-----4-4-6-|  submit with Guitar 2
|---7-----5---5-7----4-7-------|
|-4-----7----------------------|


Guitar 2:
|-----------------------------------|
|-----7---10---7--5---5-5---5---5/7-| Play 24 times
|-6-6---6---6------------6---6------| 
|-----------------------------------| 
|-----------------------------------|
|-----------------------------------|

Guitar 1: If Jaybee start singing 1 plays 2 times palm mute

|---------------------------------|
|---------------------------------|
|---------------------------------|
|-4-4-4-4-4-4-4-4-0-0-0-0-0-0-0-0-|
|-4-4-4-4-4-4-4-4-0-0-0-0-0-0-0-0-|
|-4-4-4-4-4-4-4-4-0-0-0-0-0-0-0-0-|

|---------------------------------|
|---------------------------------|
|---------------------------------|
|-2-2-2-2-2-2-2-2-0-0-0-0-0-0-0-0-|
|-2-2-2-2-2-2-2-2-0-0-0-0-0-0-0-0-|
|-2-2-2-2-2-2-2-2-0-0-0-0-0-0-0-0-|

Guitar 1:
|-----|    1 time these then,
|-----|
|-----|
|-4~~-|
|-4~~-|
|-4~~-|

|-5-7-----12-| these 1 time
|-------5----|
|------------|
|------------|
|------------|
|------------|
  * *   * *

Both Guitars:
|---------------------------------|
|---------------------------------|
|---------------------------------|
|-4-4-x-4-4-x-4-4-4-4-x-4-4-x-4-4-|
|-4-4-x-4-4-x-4-4-4-4-x-4-4-x-4-4-|
|-4-4-x-4-4-x-4-4-4-4-x-4-4-x-4-4-|

|-----------------------------|
|-------------------------10--|
|-------------------------13^-|
|-0-0-x-0-0-x-0-0-0-0-x-0-----|
|-0-0-x-0-0-x-0-0-0-0-x-0-----|
|-0-0-x-0-0-x-0-0-0-0-x-0-----|

|---------------------------------|
|---------------------------------|
|---------------------------------|
|-4-4-x-4-4-x-4-4-4-4-x-4-4-x-4-4-|
|-4-4-x-4-4-x-4-4-4-4-x-4-4-x-4-4-|
|-4-4-x-4-4-x-4-4-4-4-x-4-4-x-4-4-|

|----------------------------|
|----------------------------|
|----------------------------|
|-0-0-x-0-0-x-0-0-0-0-x-0-0~-|
|-0-0-x-0-0-x-0-0-0-0-x-0-0~-|
|-0-0-x-0-0-x-0-0-0-0-x-0-0~-|

Then

Guitar 2:
|-----------------------------------------------------------------|
|-----------------------------------------------------------------|
|-----------------------------------------------------------------|
|-4-4-4-4-4-4-4-4-4-4-4-4-4-4-4-4-0-0-0-0-0-0-0-0-0-0-0-0-0-0-0-0-|
|-4-4-4-4-4-4-4-4-4-4-4-4-4-4-4-4-0-0-0-0-0-0-0-0-0-0-0-0-0-0-0-0-|
|-4-4-4-4-4-4-4-4-4-4-4-4-4-4-4-4-0-0-0-0-0-0-0-0-0-0-0-0-0-0-0-0-|

|-----------------------------------------------------------------|
|-----------------------------------------------------------------|
|-----------------------------------------------------------------|
|-2-2-2-2-2-2-2-2-2-2-2-2-2-2-2-2-0-0-0-0-0-0-0-0-0-0-0-0-0-0-0-0-|
|-2-2-2-2-2-2-2-2-2-2-2-2-2-2-2-2-0-0-0-0-0-0-0-0-0-0-0-0-0-0-0-0-|
|-2-2-2-2-2-2-2-2-2-2-2-2-2-2-2-2-0-0-0-0-0-0-0-0-0-0-0-0-0-0-0-0-|

Guitar 1: ????

|-----------------|  |-----------------|  |-----------------|  |-----------------|
|-------5-5-------|  |-------5-5-------|  |-------5-5-------|  |-------5-5-------|
|-----------6-----|2x|-----------6-----|2x|-----------6-----|2x|-----------6-----|2x
|-7-7-7-------7-7-|  |-4-4-4-------7-4-|  |-------------7---|  |-------------7---|
|-----------------|  |-----------------|  |-7-7-7---------7-|  |-5-5-5---------7-|
|-----------------|  |-----------------|  |-----------------|  |-----------------|

Then 

Guitar 1: 

|------------------------------|
|------------------------------|
|------------------------------|  5 times  
|-----7-----7------6-----4-4-6-|  
|---7-----5---5-7----4-7-------|
|-4-----7----------------------|

Guitar 2:

|---|
|---|  To begin of Guitar 1( only this one time)
|---|
|-4~| 
|-4~|
|-4~|

Guitar 1?

Guitar 2:

|---------------------------------|
|---------------------------------|
|---------------------------------|
|-0-0-0-0-0-0-0-0-9-9-9-9-9-9-9-9-|
|-0-0-0-0-0-0-0-0-9-9-9-9-9-9-9-9-|
|-0-0-0-0-0-0-0-0-9-9-9-9-9-9-9-9-|

|---------------------------------|
|---------------------------------|
|---------------------------------|
|-4-4-4-4-4-4-4-4-2-2-2-2-2-2-2-2-|
|-4-4-4-4-4-4-4-4-2-2-2-2-2-2-2-2-|
|-4-4-4-4-4-4-4-4-2-2-2-2-2-2-2-2-|

http://herbrightskies.com/
Suggest correction
Give kudos to tab author, rate the tab!
1 2 3 4 5
comments
print report bad tab
guest
You may want to rate the tab now too:
select rating
Wanna post a correction for this tab? Suggest correction