Oops, an error
Loading. Please wait.

Pretty Things Tab

version 1
version 1

Whole song

Interactive

1,284 views 1 this week
1 commentread comment
1 2 3 4 5
excellent!
x 4
add to favorites
launch autoscroll
font size
0
reset
how to read this tab
guitar tuner
Autoscroll
slow
fast
+/-
esc
set tempo
stop
Help us to improve Ultimate-Guitar.com Take our survey!
×
Author
Difficulty
Tuning
intermediate
C# G# C# F# A# D#
Band: Her bright skies
Album: Causing A Scene
Song: Pretty Things

0:00-0:16

Intro

|-------------------------------------|
|-------------------------------------|
|-------------------------------------|
|-----7-------7-------6-------4--4h6--|
|---4-------0-------2-------0---------|
|-4-------0-------2-------0-----------| x2

0:17-1:19

|---------------------------------------------------|<-WITH DELAY!! around
|---------------------------------------------------|  340ms.. thats what I
|-------11-----14----13-------------------------11--|  used :)
|-11-11----11-----11----14-11-11-14-11-14-11-14-----|
|---------------------------------------------------|
|---------------------------------------------------| x22
  * *      *       *       *   *    *     *
1:20-1:24

Harmonics

|-5*------------------12*-|<-hold finger lightly above fret and strum..
|-----5*-------5*---------|  if you do it right it will produce a nat-
|-------------------------|  ural harmonic..
|-------------------------|
|-------------------------|
|-------------------------|

1:25-1:36

Riff

|--------------------------------------------------------------|
|----------------------------------------------------------10--|
|----------------------------------------------------------13b-|
|-7-7---7-7---7-7-7-7---7-7---7-7-4-4---4-4---4-4-4-4---4------|
|-4-4---4-4---4-4-4-4---4-4---4-4-0-0---0-0---0-0-0-0---0------|
|-4-4---4-4---4-4-4-4---4-4---4-4-0-0---0-0---0-0-0-0---0------|

 ----------------------------------------------------|
 ----------------------------------------------------|
 ----------------------------------------------------|
 -7-7---7-7---7-7-7-7---7-7---7-7-4-4---4-4---4-4-6--|
 -4-4---4-4---4-4-4-4---4-4---4-4-0-0---0-0---0-0-2--|
 -4-4---4-4---4-4-4-4---4-4---4-4-0-0---0-0---0-0-2--|

1:36-1:49

Fill 1

|----------12--------------------12------------------12---------------|
|-------10-----10----10-------10-----10----10-----10-----10----10-----|
|-13/14-----------14----13/14-----------14----11------------11----11--|
|---------------------------------------------------------------------|
|---------------------------------------------------------------------|
|---------------------------------------------------------------------|

 ----12---------------------12--------------------12------------------12--|
 -10-----10----10-----10--------10----10----10--------10----10-----10-----|
 -----------11----13-----13--------13----13----13--------13----11---------|
 -------------------------------------------------------------------------|
 -------------------------------------------------------------------------|
 -------------------------------------------------------------------------|

 -----------------12------------|<-Let ring
 -10----10-----10-----10----10--|
 ----11----11------------11-----|
 -------------------------------|
 -------------------------------|
 -------------------------------|

1:49-2:09

|------------------------------------|
|------------------------------------|
|------------------------------------|
|-----7-------7-------6-------4-4h6--|
|---4-------0-------2-------0--------|
|-4-------0-------2-------0----------|

2:09-2:32

Chorus

|-------------------------------------------------------------------------|
|-------------------------------------------------------------------------|
|-------------------------------------------------------------------------|
|-------------------------------------------------------------------------|
|-0--0--0-0---0-0---0-0-0-0-9--9--9-9---9-9---9-9-9-9-4--4--4-4---4-4--4--|
|-0--0--0-0---0-0---0-0-0-0-9--9--9-9---9-9---9-9-9-9-4--4--4-4---4-4--4--|

 ----------------------------------|
 ----------------------------------|
 ----------------------------------|
 ----------------------------------|
 -4-4-4-2--2--2-2---2-2---2-2-2-2--|
 -4-4-4-2--2--2-2---2-2---2-2-2-2--|

|-------------------------------------------------------------------------|
|-------------------------------------------------------------------------|
|-------------------------------------------------------------------------|
|-------------------------------------------------------------------------|
|-0-0-0-0-0-0-0-0-0-0-0-0-0-0-0-0-9-9-9-9-9-9-9-9-9-9-9-9-9-9-9-9-4-4-4-4-|
|-0-0-0-0-0-0-0-0-0-0-0-0-0-0-0-0-9-9-9-9-9-9-9-9-9-9-9-9-9-9-9-9-4-4-4-4-|

 ----------------------------------------------------------|
 ----------------------------------------------------------|
 ----------------------------------------------------------|
 ----------------------------------------------------------|
 -4-4-4-4-4-4-4-4-4-4-4-4-2-2-2-2-2-2-2-2-2-2-2-2-2-2-2-2--|
 -4-4-4-4-4-4-4-4-4-4-4-4-2-2-2-2-2-2-2-2-2-2-2-2-2-2-2-2--|

2:32-2:55

Intro

|--------------------------------------------------|
|--------------------------------------------------|
|-------11----14----13-------------------------11--|
|-11-11----11----11----14-11-11-14-11-14-11-14-----|
|--------------------------------------------------|
|--------------------------------------------------|
  *  *     *     *        *   *    *     *

2:55-3:17

Chorus: ^
        |

3:18-3:29

Riff: ^
      |

3:29-3:40

Fill 2

|-----------------------------------------|<-Let ring
|----------10p9---------------------------|
|----11---------9----9----9----9----9h11--|
|-11----11--------11---11---11---11-------|
|-----------------------------------------|
|-----------------------------------------|

3:40-3:50

Intro: ^
       |

3:50-4:14

Fast alternate picking:

|-9-/14-17--16---12---9---7--9--7--5----7--9------7--|-7\--|<-Second time
|----------------------------------------------------|-----|  only
|----------------------------------------------------|-----|
|----------------------------------------------------|-----|
|----------------------------------------------------|-----|
|----------------------------------------------------|-----| x2

4:14-4:46

Chorus: ^
        |

4:25

|----------------------|
|----------------------|
|----------------------|
|-(3)x-(3)x-(3)x-(3)x--|
|-(3)x-(3)x-(3)x-(3)x--|
|-(3)x-(3)x-(3)x-(3)x--| <- basically just mute above the 3rd fret and

                       strum!!

Lyrics:

i am nothing without you
i am nothing without..

so where am i supposed
to rest my head tonight
when we are miles apart
and you never call
i wish we could believe
as we're stuck here in between
what could have been
and what will never be

is there something in me
that i can call hope?
is there something out there
that i can hold on to?

it's strange how things turn out
you build it up and then
let it fall to the ground
and i'm sad that i missed out
on all the pretty things
that just passed me by
moments we forgot or left behind

Enjoy!!
Suggest correction
What's this?
You can suggest a correction to this tab. Community and Mods will review your correction and vote to approve or reject it.
comments
print report bad tab
1 comment total.
0 reply
C.Bones 79 wrote on July 2 2013, 10:24 am

Thank you! someone finally posted the correct version! Good Work!

guest
You may want to rate the tab now too:
select rating
Please do not post tabs as comments. Select "correction" instead!