Oops, an error
Loading. Please wait.

Sold Our Souls To Rock N Roll intro tab

version 1
version 1

Intro

Whole song

Interactive

852 views 1 this week
3 commentsread comments
1 2 3 4 5
2 more votes to show rating
add to favorites
×
Save as Personal and add changes to this tab that will be seen only by you. Learn more ›
×
You can save this tab as Personal to edit and correct it or add notes. All changes will be seen only by you. Learn more »
launch autoscroll
font size
0
reset
how to read this tab
guitar tuner
edit
Autoscroll
slow
fast
+/-
esc
set tempo
stop
-------------------------------------------------------------------------------
        Sold our Souls (To rock 'n roll) - Her Bright Skies [Intro]
-------------------------------------------------------------------------------
Tabbed by: kerk12
E-mail: kerk12gr@gmail.com

Tuning: Drop C#[C#,G#,C#,F#,A#,D#]

D#|---------------------------------------------------------------------------|
A#|----12--12--12-------------------------------------------------------------|
F#|----------------9--9--9--12--12--12--11--11--11----------------------------|
C#|-------------------------------------------------12--12--12--12------------|
G#|---------------------------------------------------------------------------|
C#|---------------------------------------------------------------------------|

            
            
Suggest correction
Creating personal tab
Creating personal tab
You can edit any tab online and save it as your Personal.

You can edit, replace or remove any tab part or add personal notes – all changes will be seen only by you.

Personal tabs can be accessed anytime from any device, even offline.
Learn more »
Give kudos to tab author, rate the tab!
1 2 3 4 5
comments
print report bad tab
3 comments total.
0 reply
ttginger 41 Mar 28, 2014 12:21 PM

Here, I can add a bit to it.. its not much, but its something. (Also this is my first attempt at tabs so it might be off a little.)

(This is an intro to when they used to play it live, optional, but I find it fun nonetheless.Listen for exact strumming pattern on Youtube: /watch?v=sUgIkuC2uBk . )
C#|-222-222-222-222-0-|


G#|-222-222-222-222-0-|
C#|-222-222-222-222-0-|

Then do this again, just palm muted.Then at the final time, let these ring.
C#|-0~----2~---|
G#|-0~----2~---|
C#|-0~----2~---|

From what I can hear / see its this in the verse,
with a considerable amount of delay on the lead bit.

V1:
"Is there anybody out there..."

D#|-------------------------------------------------------------|
A#|-------------------------------------------------------------|
F#|----------------------12----12----12-------------------------| (x8)
C#|----------------------12----11----14-------------------------|
G#|-------------------------------------------------------------|
C#|-------------------------------------------------------------|

"I keep saying I don't want to play this game.."

*listen for strumming pattern*
C#|-2--0--5--0-|
G#|-2--0--5--0-| (x2)
C#|-2--0--5--0-|

Or is it this? I don't know. I play the first
one, but see others do the second.
F#|-------5----|
C#|-2--0--5--0-|
G#|-2--0--3--0-|(x2)
C#|-2--0-----0-|

"We break our bones.."

C#|-2--0--5--0-|
G#|-2--0--5--0-| (x4)
C#|-2--0--5--0-|

Or is it this? I don't know. I play the first
one, but see others do the second.
F#|-------5----|
C#|-2--0--5--0-|
G#|-2--0--3--0-|(x4)
C#|-2--0-----0-|

Verse 2 is the same as Verse 1:

D#|-------------------------------------------------------------|
A#|-------------------------------------------------------------|
F#|----------------------12----12----12-------------------------| (x8)
C#|----------------------12----11----14-------------------------|
G#|-------------------------------------------------------------|
C#|-------------------------------------------------------------|

Then Prechorus, into chorus. The bridge I don't know yet. Hope this adds a little help.

guest
You may want to rate the tab now too:
select rating
Wanna post a correction for this tab? Suggest correction