Oops, an error
Loading. Please wait.

Sold Our Souls To Rock N Roll Tab

version 1
version 1

Whole song

233 views 1 this week
no commentswrite comment
1 2 3 4 5
please rate
add to favorites
launch autoscroll
font size
0
reset
how to read this tab
guitar tuner
Tab Pro tools
  • play this tab
  • loop segment
  • change instrument
  • show fretboard
  • metronome
×
Best way to learn
"Sold Our Souls To Rock N Roll"
Autoscroll
slow
fast
+/-
esc
set tempo
stop
Contributor
Difficulty
Tuning
intermediate
C# G# C# F# A# D#
-------------------------------------------------------------------------------
                      Sold Our Souls (To Rock & Roll)
-------------------------------------------------------------------------------
Artist: Her Bright Skies
Album: Causing A Scene


Tuning: Drop C#/Db [Db Ab Db Gb Bb Eb]
   
Palm Mute          = *
Stress Note/Accent = >
Slide Down         = \
Slide up           = /
Hammer On          = h
Pull Off           = p

Lead Guitar (Guitar I) - Niclas
Rhythm Guitar (Guitar II) - Pete

Effects: Guitar I  - Digital Delay (around 340 ms) *constant throughout the song
                   - Distortion
         Guitar II - Distortion

Intro

Guitar I

|---7--7--7-----------------------------------------|
|------------5--5--5--8--8--8--7--7--7--3--3--3--3--|
|---------------------------------------------------|
|---------------------------------------------------|
|---------------------------------------------------|
|---------------------------------------------------|   x8

Guitar II

|-------------------------------------------------------------------------|
|-------------------------------------------------------------------------|
|-------------------------------------------------------------------------|
|-10-10-10-10-10-10-10-10-7-7-7-7-7-7-7-7-2-2-2-2-2-2-2-2-0-0-0-0-0-0-0-0-|
|-10-10-10-10-10-10-10-10-7-7-7-7-7-7-7-7-2-2-2-2-2-2-2-2-0-0-0-0-0-0-0-0-|
|-10-10-10-10-10-10-10-10-7-7-7-7-7-7-7-7-2-2-2-2-2-2-2-2-0-0-0-0-0-0-0-0-|

|------------------------------------------------------------------------------------------------|
|------------------------------------------------------------------------------------------------|
|------------------------------------------------------------------------------------------------|
|-101010--101010--101010--101010--777--777--777--777--222--222--222--222--000--000--000--000--2~-|
|-101010--101010--101010--101010--777--777--777--777--222--222--222--222--000--000--000--000--2~-|
|-101010--101010--101010--101010--777--777--777--777--222--222--222--222--000--000--000--000--2~-|

Verse

Guitar I

|-3----2--5-|
|-3----3--3-|
|-----------|
|-----------|
|-----------|
|-----------|   x8

Guitar II

This is played from the 5th bar of the verse

|------------------------------------------------------------------|
|--5-5-5-5-5-5-5-5-5-5-5-5-5-5-5-5-8-8-8-8-8-8-8-8-8-8-8-8-8-8-8-8-|
|------------------------------------------------------------------|
|------------------------------------------------------------------|
|------------------------------------------------------------------|
|------------------------------------------------------------------|
   * * * * * * * * * * * * * * * * * * * * * * * * * * * * * * * >
                                                    Palm Mute Fade
Pre-Chorus

Guitar I

|-12----12----15----15----14----14----12----12----12----12----17----17----15----15----14h15p14----|
|----12----12----12----12----12----12----12----12----12----12----12----12----12----12----------15-|
|-------------------------------------------------------------------------------------------------|
|-------------------------------------------------------------------------------------------------|
|-------------------------------------------------------------------------------------------------|
|-------------------------------------------------------------------------------------------------|

|-12----12----15----15----14----14----12----12----------------------------------------|
|----12----12----12----12----12----12----12----12-------------------------------------|
|--------------------------------------------------12-12-12-12-9-9-9-9-11----11----11-|
|-------------------------------------------------------------------------12----12----|
|-------------------------------------------------------------------------------------|
|-------------------------------------------------------------------------------------|

Guitar II

|----------------------------------------------------------------|
|----------------------------------------------------------------|
|---------------------------------5-5-5-5-5-5-5-5-2-2-2-2-7-7-7--|
|-2-2-2-2-2-2-2-2-0-0-0-0-0-0-0-0-5-5-5-5-5-5-5-5-2-2-2-2-7-7-7--|
|-2-2-2-2-2-2-2-2-0-0-0-0-0-0-0-0-3-3-3-3-3-3-3-3-0-0-0-0-5-5-5--|
|-2-2-2-2-2-2-2-2-0-0-0-0-0-0-0-0--------------------------------|
                                                          > > >
Chorus

Guitar I

|-----------------------------------------------|
|----------------------------------------10-----|
|------12--11------12-11------12-11---------11--|
|--12----------12---------12---------12---------|
|-----------------------------------------------|
|-----------------------------------------------|   x4

Guitar II

|-----------------------------------------------------------------|
|-----------------------------------------------------------------|
|---------------------------------5-5-5-5-5-5-5-5-----------------|
|-2-2-2-2-2-2-2-2-0-0-0-0-0-0-0-0-5-5-5-5-5-5-5-5-0-0-0-0-0-0-0-0-|
|-2-2-2-2-2-2-2-2-0-0-0-0-0-0-0-0-3-3-3-3-3-3-3-3-0-0-0-0-0-0-0-0-|
|-2-2-2-2-2-2-2-2-0-0-0-0-0-0-0-0-----------------0-0-0-0-0-0-0-0-|   x2

Pre-Verse

Guitar I

|----------12-12-12-10-10-10----------------------|
|-12-12-12-------------------12-12-12-10-10-------|
|-------------------------------------------12-12-|
|-------------------------------------------------|
|-------------------------------------------------|
|-------------------------------------------------|

Verse

Guitar I

|-3----2--5-|
|-3----3--3-|
|-----------|
|-----------|
|-----------|
|-----------|   x8

Guitar II

|------------------------------------------------------------------|
|--5-5-5-5-5-5-5-5-5-5-5-5-5-5-5-5-8-8-8-8-8-8-8-8-8-8-8-8-8-8-8-8-|
|------------------------------------------------------------------|
|------------------------------------------------------------------|
|------------------------------------------------------------------|
|------------------------------------------------------------------| x2(only fade the second time)
   * * * * * * * * * * * * * * * * * * * * * * * * * * * * * * * >
                                                    Palm Mute Fade
Pre-Chorus

Guitar I

|-12----12----15----15----14----14----12----12----12----12----17----17----15----15----14h15p14----|
|----12----12----12----12----12----12----12----12----12----12----12----12----12----12----------15-|
|-------------------------------------------------------------------------------------------------|
|-------------------------------------------------------------------------------------------------|
|-------------------------------------------------------------------------------------------------|
|-------------------------------------------------------------------------------------------------|

|-12----12----15----15----14----14----12----12----------------------------------------|
|----12----12----12----12----12----12----12----12-------------------------------------|
|--------------------------------------------------12-12-12-12-9-9-9-9-11----11----11-|
|-------------------------------------------------------------------------12----12----|
|-------------------------------------------------------------------------------------|
|-------------------------------------------------------------------------------------|

Guitar II

|----------------------------------------------------------------|
|----------------------------------------------------------------|
|---------------------------------5-5-5-5-5-5-5-5-2-2-2-2-7-7-7--|
|-2-2-2-2-2-2-2-2-0-0-0-0-0-0-0-0-5-5-5-5-5-5-5-5-2-2-2-2-7-7-7--|
|-2-2-2-2-2-2-2-2-0-0-0-0-0-0-0-0-3-3-3-3-3-3-3-3-0-0-0-0-5-5-5--|
|-2-2-2-2-2-2-2-2-0-0-0-0-0-0-0-0--------------------------------|
                                                          > > > 
Chorus

Guitar I

|-----------------------------------------------|
|----------------------------------------10-----|
|------12--11------12-11------12--11--------11--|
|--12----------12---------12---------12---------|
|-----------------------------------------------|
|-----------------------------------------------|   x4

Guitar II

|-----------------------------------------------------------------|
|-----------------------------------------------------------------|
|---------------------------------5-5-5-5-5-5-5-5-----------------|
|-2-2-2-2-2-2-2-2-0-0-0-0-0-0-0-0-5-5-5-5-5-5-5-5-0-0-0-0-0-0-0-0-|
|-2-2-2-2-2-2-2-2-0-0-0-0-0-0-0-0-3-3-3-3-3-3-3-3-0-0-0-0-0-0-0-0-|
|-2-2-2-2-2-2-2-2-0-0-0-0-0-0-0-0-----------------0-0-0-0-0-0-0-0-|   x2

Solo

Guitar I

|--------10h12-------------------------------|
|--10h12-------10h12-------------------------|
|--------------------12-12-12-11-11-11-------|
|--------------------------------------12-12-|
|--------------------------------------------|
|--------------------------------------------|   x8

|-------10h12--14h15p14-------------17-----------10h12--2h3p2---------5----|
|-10h12-----------------15p0--15/17----17--10h12--------------3p0-3/5---5--|
|--------------------------------------------------------------------------|
|--------------------------------------------------------------------------|
|--------------------------------------------------------------------------|
|--------------------------------------------------------------------------|

|-------10h12--14h15p14-------------17-------|
|-10h12-----------------15p0--15/17----17----|
|--------------------------------------------|
|--------------------------------------------|
|--------------------------------------------|
|--------------------------------------------|

|--------10h12-------------------------------|
|--10h12-------10h12-------------------------|
|--------------------12-12-12-11-11-11-------|
|--------------------------------------12-12-|
|--------------------------------------------|
|--------------------------------------------|

Guitar II

|------------------------------------------------------------------------------------------|
|------------------------------------------------------------------------------------------|
|----------------------------------------------------------5-5-5-5-5-5-5-5-----------------|
|-2~----------2~--------12\2-2-2-2-2-2-2-2-0-0-0-0-0-0-0-0-5-5-5-5-5-5-5-5-0-0-0-0-0-0-0-0-|
|-2~----------2~--------12\2-2-2-2-2-2-2-2-0-0-0-0-0-0-0-0-3-3-3-3-3-3-3-3-0-0-0-0-0-0-0-0-|
|-2~----------2~--------12\2-2-2-2-2-2-2-2-0-0-0-0-0-0-0-0-----------------0-0-0-0-0-0-0-0-|

|---------------------------------------------------------------------------|
|---------------------------------------------------------------------------|
|---------------------------------------------------------------------------|
|-2-2------2-2--------2-2----2-2-2--------0-0------0-0--------0-0----0-0-0--|
|-2-2------2-2--------2-2----2-2-2--------0-0------0-0--------0-0----0-0-0--|
|-2-2------2-2--------2-2----2-2-2--------0-0------0-0--------0-0----0-0-0--|

Bridge

Guitar I

|--------------------------------10--12~--7~----3--5~----10--7~----3--5--2~-|
|-5~----8--10-7~----8~----10~-----------------------------------------------|
|---------------------------------------------------------------------------|
|---------------------------------------------------------------------------|
|---------------------------------------------------------------------------|
|---------------------------------------------------------------------------|


|-7~----3--5~----10--7~----10--12---14h15-|
|-----------------------------------------|
|-----------------------------------------|
|-----------------------------------------|
|-----------------------------------------|
|-----------------------------------------|

Guitar II

|----------------------------------|
|----------------------------------|
|-5~------------------5~-----------|
|-5~--------0~--------5~--------0~-|
|-3~--------0~--------3~--------0~-|
|-----------0~------------------0~-|

Chorus/Outro

Guitar I

|-----------------------------------------------|
|----------------------------------------10-----|
|------12--11------12-11------12--11--------11--|
|--12----------12---------12---------12---------|
|-----------------------------------------------|
|-----------------------------------------------|   x4

Guitar II

|-----------------------------------------------------------------|
|-----------------------------------------------------------------|
|---------------------------------5-5-5-5-5-5-5-5-----------------|
|-2-2-2-2-2-2-2-2-0-0-0-0-0-0-0-0-5-5-5-5-5-5-5-5-0-0-0-0-0-0-0-0-|
|-2-2-2-2-2-2-2-2-0-0-0-0-0-0-0-0-3-3-3-3-3-3-3-3-0-0-0-0-0-0-0-0-|
|-2-2-2-2-2-2-2-2-0-0-0-0-0-0-0-0-----------------0-0-0-0-0-0-0-0-|   x2

Guitar I

|--------------------------------------------------------------------------------------|
|--------------------------------------------------------------------------------------|
|-----------12-12-12-11-11----------12-12-12-11-11----------12-12-12-11-11----------12-|
|--12-12-12----------------12-12-12----------------12-12-12----------------12-12-12-12-|
|--------------------------------------------------------------------------------------|
|--------------------------------------------------------------------------------------|
   *  *  *  *  *  *  *  *  *  *  *  *  *  *  *  *  *  *  *  *  *  *  *  *  *  *  *  >

Guitar II

|-------------------------------------|
|-------------------------------------|
|-5-5-5-5-5-5-5-5--5-5-5-5-5-5-5-5--5-|
|-5-5-5-5-5-5-5-5--5-5-5-5-5-5-5-5--5-|
|-3-3-3-3-3-3-3-3--3-3-3-3-3-3-3-3--3-|
|-------------------------------------|
                                    >


I think everything is correct but if you have any improvements please E-mail me 

OR

post them in the comments and i'll re-edit the tab!

Enjoy and please rate!
C.Bones
comments
We did not receive enough feedback on this tab! Please rate:
print report bad tab
1 2 3 4 5
I want to post or [tab]
guest
You may want to rate the tab now too:
select rating
Please do not post tabs as comments. Select "correction" instead!