Oops, an error
Loading. Please wait.

Spanish Flea bass

version 1
version 1

Whole song

Interactive

2,861 views 1 this week
2 commentsread comments
1 2 3 4 5
x 4
add to favorites
×
Save as Personal and add changes to this tab that will be seen only by you. Learn more ›
×
You can save this tab as Personal to edit and correct it or add notes. All changes will be seen only by you. Learn more »
launch autoscroll
font size
0
reset
guitar tuner
edit
Autoscroll
slow
fast
+/-
esc
set tempo
stop
Difficulty
intermediate
SPANISH FLEA-HERB ALPERT AND THE TIJUANA BRASS


MELODY WRITTEN OUT FOR BASS GUITAR…REGULAR TUNING (EADG)
   
|----------------------------|-----0-----------13--13-3--2--|   
|--0--1--2--3--12---12-10-9--|--------4--3--2---------------|   
|----------------------------|------------------------------|   
|----------------------------|------------------------------|
 


|---------------3--0--3--13-|-----1--14--3-14----18-|
|---3-2-1-0--3--------------|--3--------------------|
|---------------------------|-----------------------|
|---------------------------|-----------------------|
 

|-18-18-20-18-14-13-3---|------------------|
|-----------------------|--12---12-10--9---|
|-----------------------|------------------|
|-----------------------|------------------|
 

|--0----------13-13--3--2-|---------------3--0--3--13-|
|-----4--3--2-------------|---3-2-1-0--3--------------|
|-------------------------|---------------------------|
|-------------------------|---------------------------|
 

|-----1--14-3---14-16-18|--18-18-20-18-14--13---3|
|--3--------------------|------------------------|
|-----------------------|------------------------|
|-----------------------|------------------------|

END

THANK YOU….BRANDON H….

            
            
Suggest correction
Creating personal tab
Creating personal tab
You can edit any tab online and save it as your Personal.

You can edit, replace or remove any tab part or add personal notes – all changes will be seen only by you.

Personal tabs can be accessed anytime from any device, even offline.
Learn more »
comments
print report bad tab
2 comments total.
0 reply
jump_haround 187 Sep 22, 2007 01:38 PM

Skips around areas way too much... You should group the notes into 4 or 5 frets across the strings rather than about 13 frets across two.

0 reply
PillowDown 30 Oct 17, 2007 06:18 AM

Skips around areas way too much

guest
Wanna post a correction for this tab? Suggest correction