Oops, an error
Loading. Please wait.

A Taste Of Honey Bass Tab

version 1
version 1

Whole song

Interactive

28 views 1 this week
no commentswrite comment
1 2 3 4 5
3 more votes to show rating
add to favorites
launch autoscroll
font size
0
reset
guitar tuner
Autoscroll
slow
fast
+/-
esc
set tempo
stop
Help us to improve Ultimate-Guitar.com Take our survey!
×
Author
Difficulty
intermediate
A TASTE OF HONEY (Bassline)

As recorded by Herb Alpert's Tijuana Brass
(From the 1965 Album WHIPPED CREAM & OTHER DELIGHTS)

Words by Ric Marlow
Music by Bobby Scott
Arranged by Herb Alpert


Transcribed by Slowhand


Gtr I (E A D G) - 'Bass'

 Intro
  Freely Q=71
 4/4
  Gtr I
  W          W          W          W
|----------:----------:----------:------:
|----------:----------:----------:------:
|----------:----------:----------:------:
|----------:----------:----------:------:


             Q=160(8=s8)
  W          W          W          W
|----------|----------|----------|------||
|----------|----------|----------|------||
|----------|----------|----------|------||
|----------|----------|----------|------||


   1st - 3rd Verses
    $
    Q  Q  Q  Q    Q  Q  Q  Q    Q  Q  Q  Q    Q  Q  Q  Q
||--------------|-------------|-------------|-------------|
||o-3--5--6-----|-3--5--6-----|-3--5--6--3--|----3--0-----|
||o----------3--|----------3--|-------------|-1--------1--|
||--------------|-------------|-------------|-------------|


  Q  Q  Q  Q    Q  Q  Q  Q    Q  Q  Q  Q    E E Q  Q  Q
|-------------|-------------|-------------|---------------|
|-3--5--6-----|-3--5--6-----|-3--5--6--7--|-8---------3---|
|----------3--|----------3--|-------------|---8-5---------|
|-------------|-------------|-------------|--------6------|


  Q  Q  Q  Q    Q  Q  Q  Q    E Q.   Q  Q
|-------------|-------------|--------------|
|-3--5--6-----|-3--5--6-----|--------------|
|----------3--|----------3--|--------------|
|-------------|-------------|---4----4-----|


                1.
  E Q.   Q  Q    H    Q.   E   +W
|--------------|-------------|---------||
|--------------|-------------|--------o||
|--------------|------3------|--------o||
|---3----3-----|-----------1-|-(1)-----||


                             Bridge
  2.,D.S.
  H    Q.   E   +W            Q  Q  Q  Q
|-------------|------------||-------------|
|-------------|------------||-------------|
|------3------|------------||----------0--|
|-----------1-|-(1)--------||-1--3--4-----|


                              Freely Q=80
  Q  Q  Q  Q    Q  Q  Q  Q    E E Q  Q  Q
|-------------|----0--1--2--|-3------------:
|-------0--1--|-3-----------|---3----------:
|-1--3--------|-------------|-----5-----3--:
|-------------|-------------|--------6-----:


                              To Coda
  W          W          W          W
|----------:----------:----------:-------|
|----------:----------:----------:-------|
|-4--------:----------:----------:-------|
|----------:----------:----------:-------|


  Q=160(8=s8)
                       D.S. al Coda
  W          W          Q  Q  Q  Q
|----------|----------|-------------||
|----------|----------|-3--5--6-----||
|----------|----------|----------3--||
|----------|----------|-------------||


  Q=160(8=s8)
  &
  W          W
|----------|------|
|----------|------|
|----------|------|
|----------|------|


  W          Q  Q  Q  Q    Q  Q  Q  Q
|----------|-------------|-------------||
|----------|-3--5--6-----|-3--5--6-----||
|----------|----------3--|----------3--||
|----------|-------------|-------------||


                              4th Verse
  Q  Q  Q  Q    Q  Q  Q  Q     Q  Q  Q  Q    Q  Q  Q  Q
|-------------|-------------||-------------|--------------|
|-4--6--7-----|-4--6--7-----||-4--6--7-----|-4--6--7------|
|----------4--|----------4--||----------4--|----------4---|
|-------------|-------------||-------------|--------------|


  Q  Q  Q  Q    Q  Q  Q  Q    Q  Q  Q  Q    Q  Q  Q  Q
|-------------|-------------|-------------|--------------|
|-4--6--7--4--|----4--1-----|-4--6--7-----|-4--6--7------|
|-------------|-2--------2--|----------4--|----------4---|
|-------------|-------------|-------------|--------------|


  Q  Q  Q  Q    E E Q  Q  Q    Q  Q  Q  Q    Q  Q  Q  Q
|----------3--|-4------------|-------------|--------------|
|-4--6--7-----|---4-------4--|-4--6--7-----|-4--6--7------|
|-------------|-----6--------|----------4--|----------4---|
|-------------|--------7-----|-------------|--------------|


  E Q.   E E Q    E Q.   E E Q    E Q.   E E Q    E Q.   E E Q
|---------------|---------------|---------------|----------------|
|---------------|---------------|---------------|----------------|
|---------------|---------------|---------------|----------------|
|---5----5------|---4----4------|---5----5------|---4----4-------|


                                  Outro
  E Q.   E E Q    E Q.   E E Q     W          H    Q  Q
|---------------|---------------||----------|-------------*|
|---------------|---------------||----------|-------------*|
|---------------|---------------||----------|-------------*|
|---5----5------|---4----4------||----------|---------2---*|


Duration Legend
---------------
W - whole; H - half; Q - quarter; E - 8th; S - 16th; T - 32nd; X - 64th; a - acciaccatura
+ - note tied to previous; . - note dotted; .. - note double dotted
Uncapitalized letters represent notes that are staccato (1/2 duration)
Irregular groupings are notated above the duration line
Duration letters will always appear directly above the note/fret number it represents the
duration for.  Duration letters with no fret number below them represent rests.  Multi-
bar rests are notated in the form Wxn, where n is the number of bars to rest for.  Low
melody durations appear below the staff

Tablature Legend
----------------
 h   - hammer-on
 p   - pull-off
 b   - bend
 pb  - pre-bend
 r   - bend release (if no number after the r, then release immediately)
 /\  - slide into or out of (from/to "nowhere")
 s   - legato slide
 S   - shift slide
  - natural harmonic
[n]  - artificial harmonic
n(n) - tapped harmonic
 ~   - vibrato
 tr  - trill
 T   - tap
 TP  - trem. picking
 PM  - palm muting
\n/  - tremolo bar dip; n = amount to dip
 \n  - tremolo bar down
 n/  - tremolo bar up
/n\  - tremolo bar inverted dip
 =   - hold bend; also acts as connecting device for hammers/pulls
 <>  - volume swell (louder/softer)
 x   - on rhythm slash represents muted slash
 o   - on rhythm slash represents single note slash

Misc Legend
-----------
 |  - bar
||  - double bar
||o - repeat start
o|| - repeat end
*|  - double bar (ending)
 :  - bar (freetime)
 $  - Segno
 &  - Coda
Tempo markers -  = BPM(8/16=s8/s16), where s8 = swing 8ths, s16 = swing 16ths
Suggest correction
Give kudos to tab author, rate the tab!
1 2 3 4 5
comments
print report bad tab
guest
You may want to rate the tab now too:
select rating
Wanna post a correction for this tab? Suggest correction