Oops, an error
Loading. Please wait.

Cantaloupe Island bass

version 1
version 1

Whole song

29,677 views 54 this week
1 commentread comment
1 2 3 4 5
x 10
add to favorites
×
Save as Personal and add changes to this tab that will be seen only by you. Learn more ›
×
You can save this tab as Personal to edit and correct it or add notes. All changes will be seen only by you. Learn more »
launch autoscroll
font size
0
reset
guitar tuner
backing track
0:00
0:00
edit
Autoscroll
slow
fast
+/-
esc
set tempo
stop
Author
Unregistered
Writen for 5 string but use 1 on E string every time there is an 6 on low B.


Regular Tuning B.E.A.D.G
Riff1                Riff 2(key change)  Bridge 
G|------------------|------------4--6---|--------------------------|
D|------------------|-------6-----------|--------------------------|
A|------------6--8--|--4----------------|-5--5---5--5---5--5--5--5-|
E|--(1)--8----------|-------------------|--------------------------|
B|---6--------------|-------------------|--------------------------|

Order-Riff1x8
      Riff2x4
      Bridge                 and repeat for 5mins and 34 seconds



************************************

| (n)  Ghost note

************************************

            
            
Suggest correction
Creating personal tab
Creating personal tab
You can edit any tab online and save it as your Personal.

You can edit, replace or remove any tab part or add personal notes – all changes will be seen only by you.

Personal tabs can be accessed anytime from any device, even offline.
Learn more »
comments
print report bad tab
1 comment total.
+4 reply
Mikehawk101 10 Mar 02, 2013 09:39 AM

For riff 1, you should have put it as
G|------------------
D|----------1---3---
A|------3-----------
E|--1---------------

For people with a 4 string bass, and other than that it was good, thanks!

guest
Wanna post a correction for this tab? Suggest correction