Oops, an error
Loading. Please wait.

Chameleon bass

version 2
version 2

Whole song

Interactive

76,019 views 297 this week
10 commentsread comments
1 2 3 4 5
x 52
add to favorites
×
Save as Personal and add changes to this tab that will be seen only by you. Learn more ›
×
You can save this tab as Personal to edit and correct it or add notes. All changes will be seen only by you. Learn more »
launch autoscroll
font size
0
reset
guitar tuner
edit
Autoscroll
slow
fast
+/-
esc
set tempo
stop
Author
Artist: Herbie Hancock
Song  : Chameleon
Album : Head Hunters
Tuning: GDAE (standerd)
Timing: 4/4
Tabbed: Simon Skipper

This is all 100% right
This is a cool funky song



MAIN RIFF 
              .          . .
G|----------.-3----------3-6--|
D|----------6-----------------|
A|---------------3-4-5-6------|
E|--3-4-5-6-------------------|

If you get bored here are the saxaphone parts too

G|--..-..-..-6~---------------6~~/8---|
D|--88-66-88---8----86-6~-8-----------|
A|--------------------8---------------|
E|------------------------------------|

G|---8/11-8--8-6--6h8-6--------------------6~~/8--|
D|---------------------8---------86-6~-8----------|
A|----------------------8^---------8--------------|
E|-----------------------9~-6---------------------|


Any Probs??
E-Mail
Play_field@hotmail.com



************************************

| h  Hammer-on
| /  Slide up
| ~  Vibrato

************************************

            
            
Suggest correction
Creating personal tab
Creating personal tab
You can edit any tab online and save it as your Personal.

You can edit, replace or remove any tab part or add personal notes – all changes will be seen only by you.

Personal tabs can be accessed anytime from any device, even offline.
Learn more »
comments
print report bad tab
10 comments total. Showing first comments.
+1 reply
milothefultz 31 Sep 27, 2005 05:37 PM

The main line actually goes like this (and is also played on a keyboard):

G|----------------------------6--|
D|----------6--8-----------8-----|
A|----------------3-4-5-6--------|
E|-3-4-5-6-----------------------|

I usually slap it cuz it sounds cooler.

+1 reply
bassplayer496 347 Oct 26, 2006 03:37 PM

Yeah, it's the same thing he did just on different strings. And I slap it too. I'm fourteen and I'm playing this in a concert tonight. :)
~Love, Dallas~

0 reply
pwrmax 273 Oct 11, 2007 12:09 PM

I'm more comfortable with this:

G|----------1-3------------6--|
D|-------------------0---8----|
A|------0-1------3-4---6------|
E|--3-4-----------------------|

It depends on player's preference.

guest
You may want to rate the tab now too:
select rating
Wanna post a correction for this tab? Suggest correction