Oops, an error
Loading. Please wait.

From The Deepest Darkness Tab

version 1
version 1

Solo

Interactive

1,986 views 1 this week
no commentswrite comment
1 2 3 4 5
please rate
add to favorites
launch autoscroll
font size
0
reset
how to read this tab
guitar tuner
Tab Pro tools
  • play this tab
  • loop segment
  • change instrument
  • show fretboard
  • metronome
×
Best way to learn
"From The Deepest Darkness"
Autoscroll
slow
fast
+/-
esc
set tempo
stop
Contributor
-------------------------------------------------------------------------------
               From The Deepest Darkness - Here Comes The Kraken
-------------------------------------------------------------------------------


Tabbed by: Zeusimo
Myspace - http://myspace.com/jessei_f
Youtube - http://www.youtube.com/zeusimo
Twitter - http://twitter.com/zeusimo
Ultimate-Guitar - http://profile.ultimate-guitar.com/zeusimo/

Tuning: Drop C (C-G-C-F-A-D)

I'll Finish The Song Once I Buy Some Headphones
If You Find An Error Pease Tell Me
Enjoy This Shit XD

Guitar 1   x7 Guitar 1    Guitar 2
D|t12p8p5h8-| D|t12p8p5-| D|--|
A|----------| A|--------| A|--|
F|----------| F|--------| F|--|
C|----------| C|--------| C|0-|
G|----------| G|--------| G|0-|
C|----------| C|--------| C|0-|

DOES MY TASTE IS BAD!?!

Guitar 1+2
D|t12p8p5h8t12p8p5h8t12p8p5h8t12p8p5-|
A|-----------------------------------|
F|-----------------------------------|
C|-----------------------------------|
G|-----------------------------------|
C|-----------------------------------|

Guitar 1+2
D|t12p7p4h7t12p7p4h7t12p7p4h7t12p7p4-|
A|-----------------------------------|
F|-----------------------------------|
C|-----------------------------------|
G|-----------------------------------|
C|-----------------------------------|

Guitar 1+2
D|-----------------------------------|
A|t12p8p5h8t12p8p5h8t12p8p5h8t12p8p5-|
F|-----------------------------------|
C|-----------------------------------|
G|-----------------------------------|
C|-----------------------------------|

Guitar 1+2
D|-----------------------------------|
A|t12p7p4h7t12p7p4h7t12p7p4h7t12p7p4-|
F|-----------------------------------|
C|-----------------------------------|
G|-----------------------------------|
C|-----------------------------------|

Guitar 1+2
D|t12p8p5h8t12p8p5h8t12p8p5h8t12p8p5-|
A|-----------------------------------|
F|-----------------------------------|
C|-----------------------------------|
G|-----------------------------------|
C|-----------------------------------|

Guitar 1+2
D|t12p7p4h7t12p7p4h7t12p7p4h7t12p7p4-|
A|-----------------------------------|
F|-----------------------------------|
C|-----------------------------------|
G|-----------------------------------|
C|-----------------------------------|

Guitar 1+2
D|-----------------------------------|
A|t12p8p5h8t12p8p5h8t12p8p5h8t12p8p5-|
F|-----------------------------------|
C|-----------------------------------|
G|-----------------------------------|
C|-----------------------------------|

Guitar 1+2
D|-----------------------------------|
A|t12p7p4h7t12p7p4h7t12p7p4h7t12p7p4-|
F|-----------------------------------|
C|-----------------------------------|
G|-----------------------------------|
C|-----------------------------------|

Guitar 1                                               Guitar 2
D|t12p5h8t12p5h8t12p5h8-t12p5h7t12p5h7t12p5h7t12p5h7-| D|-----------|
A|---------------------------------------------------| A|-----------|
F|---------------------------------------------------| F|-----------|
C|---------------------------------------------------| C|2-10-12-10-|
G|---------------------------------------------------| G|2-10-12-10-|
C|---------------------------------------------------| C|2-10-12-10-|

Guitar 1
D|t12p5h8t12p5h8t12p5h8t12p5h8-t12p5h7t12p5h7t12p5h7-t12p5-|
A|---------------------------------------------------------|
F|---------------------------------------------------------|
C|---------------------------------------------------------|
G|---------------------------------------------------------|
C|---------------------------------------------------------|

Guitar 1                     x3 Guitar 2
D|t10pt7pt8pt10pt10pt7pt8pt7p-| D|-----------------------------------------|
A|----------------------------| A|-----------------------------------------|
F|----------------------------| F|-----------------------------------------|
C|----------------------------| C|00000-00000-00000-77777-77777-1010101010-|
G|----------------------------| G|00000-00000-00000-77777-77777-1010101010-|
C|----------------------------| C|00000-00000-00000-77777-77777-1010101010-|
                                  ..... ..... ..... ..... .....  . . . . .

Guitar 1
D|t7pt8pt7pt5pt7pt5pt5pt3p-|
A|-------------------------|
F|-------------------------|
C|-------------------------|
G|-------------------------|
C|-------------------------|

Guitar 1                        Guitar 2
D|t10pt7pt8pt10pt10pt7pt8pt7p-| D|------------------------------------------|
A|----------------------------| A|------------------------------------------|
F|----------------------------| F|------------------------------------------|
C|----------------------------| C|00000-00000-00000-77777-77777-1010101010\-|
G|----------------------------| G|00000-00000-00000-77777-77777-1010101010\-|
C|----------------------------| C|00000-00000-00000-77777-77777-1010101010\-|
                                  ..... ..... ..... ..... .....  . . . . .

Guitar 1                      x2
D|t10pt7pt8pt10pt12pt10pt8pt7p-|
A|-----------------------------|
F|-----------------------------|
C|-----------------------------|
G|-----------------------------|
C|-----------------------------|

Guitar 1
D|t8pt7pt5pt7pt7pt5pt7pt3p-|
A|-------------------------|
F|-------------------------|
C|-------------------------|
G|-------------------------|
C|-------------------------|

Guitar 1                                  Guitar 2
D|------5-7-8-10-12-10-7-8-10-8-7h8-7h8-| D|------------------------------|
A|5-7-8---------------------------------| A|------------------------------|
F|--------------------------------------| F|------------------------------|
C|--------------------------------------| C|7777-7777-7777-7777-7777-7777-|
G|--------------------------------------| G|7777-7777-7777-7777-7777-7777-|
C|--------------------------------------| C|7777-7777-7777-7777-7777-7777-|

Guitar 1                                             Guitar 2   x5
D|/15-14-15-15h17-15p14-12-17-15-14-15h17-15p14-10-| D|----------|
A|-------------------------------------------------| A|----------|
F|-------------------------------------------------| F|----------|
C|-------------------------------------------------| C|10101010\-|
G|-------------------------------------------------| G|10101010\-|
C|-------------------------------------------------| C|10101010\-|

Guitar 1                              Guitar 2 x8
D|----------------------------------| D|--------|
A|----------------------------------| A|--------|
F|----------------------------------| F|--------|
C|----------------------------------| C|--------|
G|-----------------1212141415151616-| G|--------|
C|1212141415151616------------------| C|0-0-0-0-|
                                        . . . .

Guitar 1
D|-------------------------------------------------------------------------|
A|--------------------------------------------1515171717191919212121191919-|
F|----------------------------1212141415151616-----------------------------|
C|1212141415151616141415151717---------------------------------------------|
G|-------------------------------------------------------------------------|
C|-------------------------------------------------------------------------|

Guitar 1                                                     Guitar 2  x6
D|19191917171715151514141515-15h17-15151414-15h17-15p14-10-| D|---------|
A|---------------------------------------------------------| A|---------|
F|---------------------------------------------------------| F|---------|
C|---------------------------------------------------------| C|10101010-|
G|---------------------------------------------------------| G|10101010-|
C|---------------------------------------------------------| C|10101010-|
comments
We did not receive enough feedback on this tab! Please rate:
print report bad tab
1 2 3 4 5
I want to post or [tab]
guest
You may want to rate the tab now too:
select rating
Please do not post tabs as comments. Select "correction" instead!