Oops, an error
Loading. Please wait.

Into The Slaughter Basement Tab

2,660 views 1 this week
no commentswrite comment
1 2 3 4 5
please rate
add to favorites
launch autoscroll
font size
0
reset
how to read this tab
guitar tuner
Autoscroll
slow
fast
+/-
esc
set tempo
stop
Help us to improve Ultimate-Guitar.com Take our survey!
×
Author
Difficulty
Tuning
advanced
C G C F A D
-------------------------------------------------------------------------------
              Into The Slaughter Basement - Here Comes The Kraken
-------------------------------------------------------------------------------


Tabbed by: Zeusimo
Myspace - http://myspace.com/jessei_f
Youtube - http://www.youtube.com/zeusimo
Ultimate-Guitar - http://profile.ultimate-guitar.com/zeusimo/

Tuning: Drop C (C-G-C-F-A-D)

It's Been A While Since I've Uploaded Something
This Is Something I Found On My Computer
Not Complete But I Will Ad Things When I'm Not Busy With School =]
Not Done Yet I'll Upload Guitar 2 Later
If You Find An Error Pease Tell Me
Enjoy This Shit XD


Guitar 1
D|---------------8h12-|
A|------------10------|
F|----------9---------|
C|0------10-----------|
G|0---12--------------|
C|0-------------------|

Guitar 1
D|--------------------------------------------|
A|--------------------------------------------|
F|--------------------------------------------|
C|--------------------------------------------|
G|8p5-4h7-4h7-5h7-7h8-5h7h8-5h7h8-4h5h7-4h5h7-|
C|--------------------------------------------|

Guitar 1
D|-----------------------------------------------|
A|-----------------------------------------------|
F|-----------------------------------------------|
C|----------------------------5h8-----------7h10-|
G|8p5-4h7-4h7-5h7-7h8-----5h8----------7h10------|
C|--------------------5h8---------7h10-----------|

Guitar 1
D|------------------------------|
A|------------------------------|
F|------------------------------|
C|----------7h10-8h12-----------|
G|-----7h10-----------8h12------|
C|7h10---------------------8h12-|

Guitar 1
D|-----------------------8h12-|
A|--------------------10------|
F|------------------9---------|
C|---------------10-----------|
G|8p5-4h7-4h7-12--------------|
C|----------------------------|

Guitar 1             x2
D|--------------------|
A|--------------------|
F|--------------------|
C|--------------------|
G|8p5-4h7-4h7-5h7-7h8-|
C|--------------------|

Guitar 1
D|-------------------------------|
A|-------------------------------|
F|-------------------------------|
C|--------------10---------------|
G|----8---10---------12----10h12-|
C|888---8----10---10----10-------|
  ...   .     .    .     .

Guitar 1
D|--------5h8p5------------------7h10p7----------|
A|------6-------6--------------8--------8--------|
F|----5-----------5----------7------------7------|
C|--6---------------6------8----------------8----|
G|8-------------------8-10--------------------10-|
C|-----------------------------------------------|

Guitar 1
D|-----------8h12p8------------------------12h15p12-------------|
A|--------10--------10------------------13----------13----------|
F|------9--------------9-------------12----------------12-------|
C|---10------------------10-------13----------------------13----|
G|12------------------------12-15----------------------------15-|
C|--------------------------------------------------------------|

Guitar 1
D|--------|
A|--------|
F|--------|
C|0-0-0-0-|
G|0-0-0-0-|
C|0-0-0-0-|
  . . . .

Guitar 1
D|-----------------------------------------------------------|
A|--------------------------------------------13h17----------|
F|-----------------------------------------14----------14h17-|
C|--------------------------------------------------15-------|
G|7---5---4---5---8---7---5---4---5--------------------------|
C|--7---7---7---7---7---7---7---7---777777-------------------|
    .   .   .   .   .   .   .   .   ......

Guitar 1
D|-------------------------------------------------------------|
A|-------------------------------------17p13-------------------|
F|-------------------------------------------14----------14h17-|
C|----------------------------------------------15-12-15-------|
G|4---5---7---8---7---5---4---5--------------------------------|
C|--7---7---7---7---7---7---7---777777-------------------------|
    .   .   .   .   .   .   .   ......

Guitar 1
D|-----------------------------------------------------------|
A|--------------------------------------------13h17----------|
F|-----------------------------------------14----------14h17-|
C|--------------------------------------------------15-------|
G|7---5---4---5---8---7---5---4---5--------------------------|
C|--7---7---7---7---7---7---7---7---777777-------------------|
    .   .   .   .   .   .   .   .   ......

Guitar 1
D|-------------------------------------------------------------|
A|-------------------------------------17p13-------------------|
F|-------------------------------------------14----------14h17-|
C|----------------------------------------------15-12-15-------|
G|4---5---7---8---7---5---4---5--------------------------------|
C|--7---7---7---7---7---7---7---777777-------------------------|
    .   .   .   .   .   .   .   ......

Guitar 1                  x3
D|-------------------------|
A|-------------------------|
F|-------------------------|
C|-------------------------|
G|5h8-7h10-8h12-7h10-5h8p5-|
C|-------------------------|

Guitar 1
D|------------------------------|
A|------------------------------|
F|------------------------------|
C|--------------8-7-5-4-7-5-4-3-|
G|5h8-7h10-8h12-8-7-5-4-7-5-4-3-|
C|--------------8-7-5-4-7-5-4-3-|
                . . . . . . . .

Guitar 1
D|---------------------------------8h12p8------------|
A|------------------------------10--------10---------|
F|----------------------------9--------------9-------|
C|-------------------------10------------------10----|
G|5h8-7h10-8h12-7h10----12------------------------12-|
C|-------------------14------------------------------|
Suggest correction
Give kudos to tab author, rate the tab!
1 2 3 4 5
comments
print report bad tab
guest
You may want to rate the tab now too:
select rating
Wanna post a correction for this tab? Suggest correction