Oops, an error
Loading. Please wait.

Collector bass

775 views 1 this week
1 commentread comment
1 2 3 4 5
2 more votes to show rating
add to favorites
×
Save as Personal and add changes to this tab that will be seen only by you. Learn more ›
×
You can save this tab as Personal to edit and correct it or add notes. All changes will be seen only by you. Learn more »
launch autoscroll
font size
0
reset
guitar tuner
edit
Autoscroll
slow
fast
+/-
esc
set tempo
stop
Author
Difficulty
-------------------------------------------------------------------------------
			           COLLECTOR - Here We Go Magic
-------------------------------------------------------------------------------

||Tabbed By : Leo                                                            ||
||Contact: @ohhleo                                                           ||
||                                                                           ||
||Tuning: Standard EADG                                                      ||
||                                                                           ||
||The endings are kinda guessed, since they are covered by too many layers   ||
||towards the end. Best thing to do is playing own variations of A and B.    ||
||Have fun.                                                                  ||


INTRO +Rythm Guitar
  1+2+3+4+
G|--------|
D|--------|
A|55x555x5|
E|--------| x6

 (A) +Lead Guitar, +Drums, +Synth
  1       1       1       1       1       1       1       1       
G|-------------------------7x77-7--------------------------7x77-7-|
D|-------------777-----------------------------777----------------|
A|55x555x555x55---55x555x55-------55x555x555x55---55x555x55-------|
E|----------------------------------------------------------------|

 (A)
 (A)
 (A)

 (A*) +Voc
  1       1       1       1       1       1       1       1
G|-------------------------7x77-7-------------------------7766----|
D|-------------777-----------------------------77-----447-----7744|
A|55x555x555x55---55x555x55-------55x555x555x55---5577---5--------|
E|-----------------------------------------------5----------------|

 (B)
  1       1       1       1       1       1       1       1       
G|---------------------------------------------------------7x77-7-|
D|---------------------------------------------777----------------|
A|--------------------------------55x555x555x55---55x555x55-------|
E|33333333333333333333555577779999--------------------------------|
 
 (A)

 (B*)
  1       1       1       1       1       1       1       1       
G|---------------------------------------------------------7x-797-|
D|---------------------------------------------777-----------7----|
A|--------------------------------55x555x555x55---55x555x55-------|
E|33333333333333333333555577779999--------------------------------|

 (A**)
  1       1       1       1       1       1       1       1
G|-------------------------7x77-7---------------------------------|
D|-------------777-----------------------------777------------4474|
A|55x555x555x55---55x555x55-------55x555x555x55---55x555x555x5----|
E|----------------------------------------------------------------|

 (B**)
  1       1       1       1       1       1       1       1
G|----------------------------------------------------------------|
D|---------------------------------------------777----------------|
A|--------------------------------55x555x555x55---55x555x55\\-----|
E|33333333333333333333555577779999--------------------------------|

 (A*)
 (B)

 (A*3) 2:14
  1       1       1       1       1       1       1       1
G|-------------------------7x77-7--------------------------47974--|
D|--------------------------------------------------------5-----5\|
A|55x555x55---5---55x555x55-------55x555x55---5---55x555x5--------|
E|----------5---5---------------------------5---5-----------------|

 (B**)
 (A*)
 (B)
 (A**)
 (B)

 (A*4) 3:16
  1       1       1       1       1       1       1       1 + 2+3+4+
G|-------------------------7x77-7---------------------77--11119977--|
D|---------------------------------------------------7--7-- - ----7\|
A|55x555x55---5---55x555x55-------55x555x55---5---55x------ - ------|
E|----------5---5---------------------------5---5---------- - ------|

 (B*3)
  1       1       1       1       1       1       1        1 + 2+ 3 +4 +
G|-------------------------------------------------------- - 11-1111-11\|
D|-------------------------------------------------------1212- -- - -- -|
A|--------------------------------55x555x55---5---55x555x- - - -- - -- -|
E|33333333333333333333555577779999----------5---5--------- - - -- - -- -|

 (A*5) 3:37
  1       1       1       1       1       1       1       1+ 2 + 3 + 4 +
G|-------------------------7x77-7--------------------------- 111114141111\|(?)
D|-------------777-----------------------------777-------7712- - - - - -  |
A|55x555x555x55---55x555x55-------55x555x555x55---55x555x--- - - - - - -  |
E|---------------------------------------------------------- - - - - - -  |

 (B)
 (A pick one :P)
 (B)
 (A*3)
 (B*3)
 (A*3 with ending of A*5)
 (B)


||So again the order…

PRE SONG     6 bars
INTRO        A   A   A   A
CHORUS       A*  B
LONG VERSE   A   B*  A** B**
CHORUS       A*  B
SHORT VERSE  A*3 B**
CHORUS       A*  B
INSTR.       A** B   A*4 B*3
             A*5 B   A   B
             A*3 B*3 A*3/5 B


||If you find a mistake, comment, i'll correct it! And also, if you find the
||right ending of A*5 and A*3/5, please let me know via comment or so.


| \  slide down
| x  Mute note
===============================================================================
Suggest correction
Creating personal tab
Creating personal tab
You can edit any tab online and save it as your Personal.

You can edit, replace or remove any tab part or add personal notes – all changes will be seen only by you.

Personal tabs can be accessed anytime from any device, even offline.
Learn more »
Give kudos to tab author, rate the tab!
1 2 3 4 5
comments
print report bad tab
1 comment total.
0 reply
Herp_Derper 10 Oct 25, 2013 05:24 PM

Can you do the guitar version too?

guest
You may want to rate the tab now too:
select rating
Wanna post a correction for this tab? Suggest correction