Oops, an error
Loading. Please wait.

Amor De Barra tab

36 views 1 this week
no commentswrite comment
1 2 3 4 5
3 more votes to show rating
add to favorites
×
Save as Personal and add changes to this tab that will be seen only by you. Learn more ›
×
You can save this tab as Personal to edit and correct it or add notes. All changes will be seen only by you. Learn more »
launch autoscroll
font size
0
reset
how to read this tab
guitar tuner
edit
Autoscroll
slow
fast
+/-
esc
set tempo
stop
Heredeiros da crus: Amor de barra
---------------------------------

Intro:
------
C

Estrofa:
--------
C                                                               G
dime quen queres que che queira ou si che queren todos mais ca min
                                                         C
ou si é que os queres ti a eles e eles querenche solo a ti.
   F                             C#   F                         C#
Si me quixeras coma eu a ti che quero,querriasme tanto como eu a ti
C                         G                                         C
e o cariño que asi seria mutuo moito me temo que qo queiras compartir.

Estribillo:
-----------
        D#                      A#
Por iso voume desta barra americana
              D#                  G
onde eu quero creer que ti me vas querer
       D#               A#
por pajar 4000 por un cubata 
   D#                                G
e 5000 pola atension sen levamtar do sillon.

Ponte:
------
  D#    D D# F6                    D(pm)
Porque eu o que quero é ... comprension.

Solo:
-----

|------------------------------------------------
|------------------------------------------------
|------------------------------------------------
|--------3-5--6-5--3-5--6-5-------7/9-6-3-5------
|-3--5-6--------------------8-6-5----------------
|------------------------------------------------

----------------------------------------|
----------------------------------------|
----------------------------------------|
-3-5--6-5--3-5--6-5--3-5--6-5-----------|
------------------------------8-6-5-3---|
----------------------------------------|
x2

3:18
|----------------------------------------------
|----------------------------------------------
|----------------------------------------------
|-----3-5-6-5-3--3-6-8-10h11-10---8-6-5-3--3v--
|-5-6------------------------------------------
|----------------------------------------------
      
-------------------------------------------------------------|
-------------------------------------------------------------|
-------------------------------------------------------------|
-3-6-8-10h11-10----8-6-5-3-------3-5--6-5--3-5--6-5----------|
---------------------------3--5-6-------------------8-6-5-3--|
-------------------------------------------------------------|

F6 D# F6 D#

Letra:
------
Dime quen queres que che queira ou si che queren todos mais ca min
ou si é que os queres ti a eles e eles querenche solo a ti.
Si me quixeras coma eu a ti che quero,querriasme tanto como eu a ti
e o cariño que asi seria mutuo moito me temo que qo queiras compartir.

Por iso voume desta barra americana
onde eu quero creer que ti me vas querer
por pajar 4000 por un cubata 
e 5000 pola atension sen levamtar do sillon.

Porque eu o que quero é ... comprension.

Se nom queres querernme ai cariño co moito que eu che quero a ti
toma 5000 e nom te vaias porque eses prejuntan xa por ti.
Eu o que quero e quedarme aqui contijo e que me queiras coma eu che quero a ti
e o cariño que asi seria mutuo moito me temo que o queiras compartir.

Por iso voume...

Porque eu o que....

Louro´04

            
            
Suggest correction
Creating personal tab
Creating personal tab
You can edit any tab online and save it as your Personal.

You can edit, replace or remove any tab part or add personal notes – all changes will be seen only by you.

Personal tabs can be accessed anytime from any device, even offline.
Learn more »
Give kudos to tab author, rate the tab!
1 2 3 4 5
comments
print report bad tab
guest
Wanna post a correction for this tab? Suggest correction