Oops, an error
Loading. Please wait.

Quero Ghosar tab

53 views 1 this week
no commentswrite comment
1 2 3 4 5
3 more votes to show rating
add to favorites
×
Save as Personal and add changes to this tab that will be seen only by you. Learn more ›
×
You can save this tab as Personal to edit and correct it or add notes. All changes will be seen only by you. Learn more »
launch autoscroll
font size
0
reset
how to read this tab
guitar tuner
edit
Autoscroll
slow
fast
+/-
esc
set tempo
stop
Notas:
-Es la version del directo con el 'juventu,juventú' en medio, 
le he metido la intro y algun fill 

-Haber si se anima la gente a sacar tabs de hdc, mandame algo al correo
para que me saque mas tabs de hdc.

Intro:
E||----------------------------------------------------------||
B||--------7-------------7-------------7-------------7-------||
G||------7---7---------7---7---------7---7---------7---7-----||
D||----7-------7-----7-------7-----7-------7-----7-------7---||
A||--5-------------5-------------5-------------5-------------||
E||----------------------------------------------------------||

Riff de intro:
Sete cuncas de viño unha vella de golpe 
     D       A                        G               D       fill-l
E||----------------------------------------------------------|----------||
B||----------------------------------------------------------|-8p7------||
G||----------------------------------------------------------|-----7----||
D||---7~---------------------------------------------7-------|--------7-||
A||----------7------------------------5----------------------|----------||
E||----------------------------------------------------------|----------||
    bebeu reventoulle o cordon do xustillo de tanto que encheu.

(igual que antes)  
Tiña sede e bebeu outras sete e mais escorou
Fixo como un fogete no aire: chis, pum estoupou

puente: D C  D C  D C  D C  x2        

Dxxx   
Sete cuncas de viño unha vella de golpe bebeu
       A                   G          A           D
Reventoulle o cordón do sustillo de tanto que encheu
Dxxx                       
Tiña sede e bebeu outras sete e mais escorou
          A              G          A         D
Fixo como un fogete no aire: chis, pum estoupou

Estribillo:
           G                 D
Eu  quero, eu quero josar
             A       G   A      D
Encherme de viño, ata reventar
      G                   D
¡Eu quero,  eu quero ghosar!
               A      G      A        D
E morrer empalmado, cunha botella na man
                       
Andar pedo tirado, ou de lado e senón como un can
Mexar detras dunha esquina e volver a cargar          
Pois mirade que o tempo non para e axiña se vai  
Disfrutade, cagade e pintade, non vos pido máis

estribillo

(juventu,juventu)
E||--------------------------------------||
B||--7-------9------10-7-10-9-7---7------||
G||----8------10----------------9---8----||
D||------9------11--------------------9--||
A||--------------------------------------||
E||--------------------------------------||

Parrafada de Tuchiño y...

Ahora con el punteo de antes:
Juventú, juventú, tede coidado cos paus da lus

estribillo

fin

Louro´02

            
            
Suggest correction
Creating personal tab
Creating personal tab
You can edit any tab online and save it as your Personal.

You can edit, replace or remove any tab part or add personal notes – all changes will be seen only by you.

Personal tabs can be accessed anytime from any device, even offline.
Learn more »
Give kudos to tab author, rate the tab!
1 2 3 4 5
comments
print report bad tab
guest
Wanna post a correction for this tab? Suggest correction