Oops, an error
Loading. Please wait.

1992 tab

21 views 1 this week
no commentswrite comment
1 2 3 4 5
3 more votes to show rating
add to favorites
×
Save as Personal and add changes to this tab that will be seen only by you. Learn more ›
×
You can save this tab as Personal to edit and correct it or add notes. All changes will be seen only by you. Learn more »
launch autoscroll
font size
0
reset
how to read this tab
guitar tuner
edit
Autoscroll
slow
fast
+/-
esc
set tempo
stop
Las guitarras están afinadas en G (dBGDGE), en el solo no.

d|------------------------------------------------------------------|
B|----------------------------------------3-------------------------|
G|-3-3-3-3-----3-3-3-3-----3-----3/4--2/4---4/2-O---O-------------O-|
D|-2-2-2-2-----2-2-2-2-----2-----2/3--------------2-Oh2h3p2pO-----O-|
G|-O-O-O-O--O--O-O-O-O--O--O--O--O----------------------------2/4---|
E|------------------------------------------------------------------|

d|------------------------------------3------3------3---------------|
B|------------------------------------3------3------3---------------|
G|-3-3-3-3-----3-3-3-3-----3-----3/4----5(7)---5(7)-----------------|
D|-2-2-2-2-----2-2-2-2-----2-----2/3--------------------------------|
G|-O-O-O-O--O--O-O-O-O--O--O--O--O----------------------------------|
E|------------------------------------------------------------------|

d|------------------------------------------------------------------|
B|----------------------------------------3-------------------------|
G|-3-3-3-3-----3-3-3-3-----3-----3/4--2/4---4/2-O---O-------------O-|
D|-2-2-2-2-----2-2-2-2-----2-----2/3--------------2-Oh2h3p2pO-----O-|
G|-O-O-O-O--O--O-O-O-O--O--O--O--O----------------------------2/4---|
E|------------------------------------------------------------------|

d|------------------------------------------------------------------|
B|-------------------------------------5--5--5----------------------|
G|-3-3-3-3-----3-3-3-3-----3-----3/4---5--5--5----------------------|
D|-2-2-2-2-----2-2-2-2-----2-----2/3---5--5--5----------------------|
G|-O-O-O-O--O--O-O-O-O--O--O--O--O-----7--7--7----------------------|
E|------------------------------------------------------------------|

d|-12--12----1O--1O----5--5----3--3---------------------------------|
B|-12--12----1O--1O----5--5----3--3---------------------------------|
G|-12--12----12--12----7--7----3--3----2--2-------------------------|
D|-14--14----1O--1O----5--5----5--5----3--3-------------------------|
G|-12--12----1O--1O----5--5----3--3----2--2-------------------------|
E|------------------------------------------------------------------|

d|-12--12----1O--1O----5--5----3--3---------------------------------|
B|-12--12----1O--1O----5--5----3--3---------------------------------|
G|-12--12----12--12----7--7----3--3----2--2-------------------------|
D|-14--14----1O--1O----5--5----5--5----3--3-------------------------|
G|-12--12----1O--1O----5--5----3--3----2--2-------------------------|
E|------------------------------------------------------------------|

Yo nunca pude ver el valor

d|-12--12----1O--1O----5--5----3--3---------------------------------|
B|-12--12----1O--1O----5--5----3--3---------------------------------|
G|-12--12----12--12----7--7----3--3----2--2-------------------------|
D|-14--14----1O--1O----5--5----5--5----3--3-------------------------|
G|-12--12----1O--1O----5--5----3--3----2--2-------------------------|
E|------------------------------------------------------------------|

Yo nunca pude entrar en razón

d|-12--12----1O--1O----5--5----3--3---------------------------------|
B|-12--12----1O--1O----5--5----3--3---------------------------------|
G|-12--12----12--12----7--7----3--3----2--2-------------------------|
D|-14--14----1O--1O----5--5----5--5----3--3-------------------------|
G|-12--12----1O--1O----5--5----3--3----2--2-------------------------|
E|------------------------------------------------------------------|

Estabas aquí, yo estaba allá a veces la gente se conforma

d|-12--12----1O--1O----5--5----3--3---------------------------------|
B|-12--12----1O--1O----5--5----3--3---------------------------------|
G|-12--12----12--12----7--7----3--3----2--2-------------------------|
D|-14--14----1O--1O----5--5----5--5----3--3-------------------------|
G|-12--12----1O--1O----5--5----3--3----2--2-------------------------|
E|------------------------------------------------------------------|

Yo nunca pude entrar en razón

d|-12--12----1O--1O----5--5----3--3---------------------------------|
B|-12--12----1O--1O----5--5----3--3---------------------------------|
G|-12--12----12--12----7--7----3--3----2--2-------------------------|
D|-14--14----1O--1O----5--5----5--5----3--3-------------------------|
G|-12--12----1O--1O----5--5----3--3----2--2-------------------------|
E|------------------------------------------------------------------|

Y hoy se me escapan aquellas palabras de amor

d|-12-12-12-12-12-12----1O-1O-1O-1O----5-5-5-5-5-5----3-3-3-3-------|
B|-12-12-12-12-13-12----1O-1O-11-11----5-5-5-5-6-5----3-3-4-4-------|
G|-12-12-12-12-12-12----1O-1O-1O-1O----5-5-5-5-5-5----3-3-3-3-------|
D|-12-12-12-12-14-12----1O-1O-12-12----5-5-5-5-7-5----3-3-5-5-------|
G|-12-12-12-12-12-12----1O-1O-1O-1O----5-5-5-5-5-5----3-3-3-3-------|
E|------------------------------------------------------------------|

Que ayer nunca te dije

d|-12-12-12-12-12-12----1O-1O-1O-1O----5-5-5-5-5-5----3-3-3-3-------|
B|-12-12-12-12-13-12----1O-1O-11-11----5-5-5-5-6-5----3-3-4-4-------|
G|-12-12-12-12-12-12----1O-1O-1O-1O----5-5-5-5-5-5----3-3-3-3-------|
D|-12-12-12-12-14-12----1O-1O-12-12----5-5-5-5-7-5----3-3-5-5-------|
G|-12-12-12-12-12-12----1O-1O-1O-1O----5-5-5-5-5-5----3-3-3-3-------|
E|------------------------------------------------------------------|

Y ahora se marcha mi alma, alma de dolor

d|-12-12-12-12-12-12----1O-1O-1O-1O----5-5-5-5-5-5----3-3-3-3-------|
B|-12-12-12-12-13-12----1O-1O-11-11----5-5-5-5-6-5----3-3-4-4-------|
G|-12-12-12-12-12-12----1O-1O-1O-1O----5-5-5-5-5-5----3-3-3-3-------|
D|-12-12-12-12-14-12----1O-1O-12-12----5-5-5-5-7-5----3-3-5-5-------|
G|-12-12-12-12-12-12----1O-1O-1O-1O----5-5-5-5-5-5----3-3-3-3-------|
E|------------------------------------------------------------------|

Porque ya te fuiste

d|-7-7--5----5-5-5-5--3---------------------------------------------|
B|-8-8--6----5-5-5-5--3---------------------------------------------|
G|-7-7--5----5-5-5-5--3---------------------------------------------|
D|-9-9--7----5-5-5-5--3---------------------------------------------|
G|-7-7--5----5-5-5-5--3---------------------------------------------|
E|------------------------------------------------------------------|

Vos nunca supiste decir no

d|-12--12----1O--1O----5--5----3--3---------------------------------|
B|-12--12----1O--1O----5--5----3--3---------------------------------|
G|-12--12----12--12----7--7----3--3----2--2-------------------------|
D|-14--14----1O--1O----5--5----5--5----3--3-------------------------|
G|-12--12----1O--1O----5--5----3--3----2--2-------------------------|
E|------------------------------------------------------------------|

A veces demostrabas dolor

d|-12--12----1O--1O----5--5----3--3---------------------------------|
B|-12--12----1O--1O----5--5----3--3---------------------------------|
G|-12--12----12--12----7--7----3--3----2--2-------------------------|
D|-14--14----1O--1O----5--5----5--5----3--3-------------------------|
G|-12--12----1O--1O----5--5----3--3----2--2-------------------------|
E|------------------------------------------------------------------|

Estabas muy bien yo estaba muy mal, a veces la gente se conforma

d|-12--12----1O--1O----5--5----3--3---------------------------------|
B|-12--12----1O--1O----5--5----3--3---------------------------------|
G|-12--12----12--12----7--7----3--3----2--2-------------------------|
D|-14--14----1O--1O----5--5----5--5----3--3-------------------------|
G|-12--12----1O--1O----5--5----3--3----2--2-------------------------|
E|------------------------------------------------------------------|

Vos nunca supiste decir no

d|-12--12----1O--1O----5--5----3--3---------------------------------|
B|-12--12----1O--1O----5--5----3--3---------------------------------|
G|-12--12----12--12----7--7----3--3----2--2-------------------------|
D|-14--14----1O--1O----5--5----5--5----3--3-------------------------|
G|-12--12----1O--1O----5--5----3--3----2--2-------------------------|
E|------------------------------------------------------------------|

Y hoy se me escapan aquellas palabras de amor

d|-12-12-12-12-12-12----1O-1O-1O-1O----5-5-5-5-5-5----3-3-3-3-------|
B|-12-12-12-12-13-12----1O-1O-11-11----5-5-5-5-6-5----3-3-4-4-------|
G|-12-12-12-12-12-12----1O-1O-1O-1O----5-5-5-5-5-5----3-3-3-3-------|
D|-12-12-12-12-14-12----1O-1O-12-12----5-5-5-5-7-5----3-3-5-5-------|
G|-12-12-12-12-12-12----1O-1O-1O-1O----5-5-5-5-5-5----3-3-3-3-------|
E|------------------------------------------------------------------|

Que ayer nunca te dije

d|-12-12-12-12-12-12----1O-1O-1O-1O----5-5-5-5-5-5----3-3-3-3-------|
B|-12-12-12-12-13-12----1O-1O-11-11----5-5-5-5-6-5----3-3-4-4-------|
G|-12-12-12-12-12-12----1O-1O-1O-1O----5-5-5-5-5-5----3-3-3-3-------|
D|-12-12-12-12-14-12----1O-1O-12-12----5-5-5-5-7-5----3-3-5-5-------|
G|-12-12-12-12-12-12----1O-1O-1O-1O----5-5-5-5-5-5----3-3-3-3-------|
E|------------------------------------------------------------------|

Y ahora se marcha mi alma, alma de dolor

d|-12-12-12-12-12-12----1O-1O-1O-1O----5-5-5-5-5-5----3-3-3-3-------|
B|-12-12-12-12-13-12----1O-1O-11-11----5-5-5-5-6-5----3-3-4-4-------|
G|-12-12-12-12-12-12----1O-1O-1O-1O----5-5-5-5-5-5----3-3-3-3-------|
D|-12-12-12-12-14-12----1O-1O-12-12----5-5-5-5-7-5----3-3-5-5-------|
G|-12-12-12-12-12-12----1O-1O-1O-1O----5-5-5-5-5-5----3-3-3-3-------|
E|------------------------------------------------------------------|

Porque ya te fuiste

d|-7-7--7----5-5-5-5--5---------------------------------------------|
B|-8-8--7----6-6-6-6--5---------------------------------------------|
G|-7-7--7----5-5-5-5--5---------------------------------------------|
D|-9-9--7----7-7-7-7--5---------------------------------------------|
G|-7-7--7----5-5-5-5--5---------------------------------------------|
E|------------------------------------------------------------------|

d|--------O-------------O-----O-------------------------------------|
B|-----------O----------------2-------------------------------------|
G|----------------------------O-------------------------------------|
D|-----2-------------O--------2-------------------------------------|
G|---4------------O-----------O-------------------------------------|
E|-O----------------------------------------------------------------|

d|--------O-------------O-----O-------------------------------------|
B|-----------O----------------2-------------------------------------|
G|----------------------------O-------------------------------------|
D|-----2-------------O--------2-------------------------------------|
G|---4------------O-----------O-------------------------------------|
E|-O----------------------------------------------------------------|

Yo nunca existí

d|--------O-------------O-----O-------------------------------------|
B|-----------O----------------2-------------------------------------|
G|----------------------------O-------------------------------------|
D|-----2-------------O--------2-------------------------------------|
G|---4------------O-----------O-------------------------------------|
E|-O----------------------------------------------------------------|

Yo nunca fui así

d|--------O-------------O-----O-------------------------------------|
B|-----------O----------------2-------------------------------------|
G|----------------------------O-------------------------------------|
D|-----2-------------O--------2-------------------------------------|
G|---4------------O-----------O-------------------------------------|
E|-O----------------------------------------------------------------|

Fui yo el que se alejó sabiendo que ya estabas aquí

d|--------O-------------O-----O-------------------------------------|
B|-----------O----------------2-------------------------------------|
G|----------------------------O-------------------------------------|
D|-----2-------------O--------2-------------------------------------|
G|---4------------O-----------O-------------------------------------|
E|-O----------------------------------------------------------------|

Pero nena... si solo estuvieras aquí

d|-O-O-O-O-O-O-O-O-----5-5-5-5-5------------------------------------|
B|-1-1-1-1-1-1-1-1-----5-5-5-5-5------------------------------------|
G|-O-O-O-O-O-O-O-O-----5-5-5-5-5------------------------------------|
D|-2-2-2-2-2-2-2-2-----5-5-5-5-5------------------------------------|
G|-O-O-O-O-O-O-O-O-----7-7-7-7-7------------------------------------|
E|------------------------------------------------------------------|

Solo:

e|------------------------------------------------------------------|
B|------------------------------------------------------------------|
G|-------3----------3-----------------------------------------------|
D|--3pO-----5--3pO-----5-----3--5--5p3-----5--5---------------------|
G|------------------------5-------------5--------5--4--3(4)--3--1---|
E|------------------------------------------------------------------|
                           con wah-wah
e|------------------------------------------------------------------|
B|-------------------6(8)------------6(8)------------6(8)--3--6-----|
G|----------------3--------(7)p5--3--------(7)p5--5-----------------|
D|----------3--5----------------------------------------------------|
G|-----3/5----------------------------------------------------------|
E|--3---------------------------------------------------------------|
                           con wah-wah
e|----------------------------------------6-------------------------|
B|--5(6)--5--3--5----------------6-----8----------8--11-----8-------|
G|-----------------3-----3--5/7-----7--------7/9---------9-----7/9--|
D|--------------------5---------------------------------------------|
G|------------------------------------------------------------------|
E|------------------------------------------------------------------|
                           con wah-wah
e|------------------------------------------------------------------|
B|--8--11-----8-------8--11(13)--(13)--11--15------15------15-------|
G|---------9-----7/9-----------------------14(16)--14(16)--14(16)---|
D|------------------------------------------------------------------|
G|------------------------------------------------------------------|
E|------------------------------------------------------------------|
                           con wah-wah
e|------------------------------------------------------------------|
B|----------------------------------15--15--------------------------|
G|--12------12--14(16)--14--12----------14(16)--12------12------12--|
D|------14----------------------14------------------14------14------|
G|------------------------------------------------------------------|
E|------------------------------------------------------------------|
                           con wah-wah
e|------------------------------------------------------------------|
B|--------------------------------15(17)--15(17)--15(18)15--13--15--|
G|--12------------------------12------------------------------------|
D|--14(15)p14--12--14-----------------------------------------------|
G|---------------------13h14----------------------------------------|
E|------------------------------------------------------------------|
                           con wah-wah
e|----------15------------------------15----------------------------|
B|----------15------------------------15----------------------------|
G|--14(16)------14(16)14--12--14(16)------14(16)14--12------12------|
D|------------------------------------------------------14----------|
G|------------------------------------------------------------------|
E|------------------------------------------------------------------|
                           con wah-wah
e|------------------------------------------------------------------|
B|----------------------15----------15------------------------------|
G|--14(16)--14--12----------14(16)------14(16)14--12------12-----12-|
D|------------------14--------------------------------14--12h14--12-|
G|------------------------------------------------------------------|
E|------------------------------------------------------------------|
                           con wah-wah
e|------------------------------------------------------------------|
B|------------------------------------------12--12h13--13--13--13---|
G|---------12---------12---------12---------12--12-----12--12--12---|
D|---------12---------12---------12---------12--12h14--14--14--14---|
G|--13h14------13h14------13h14------13h14--------------------------|
E|------------------------------------------------------------------|
                           con wah-wah
e|------------------------------------------------------------------|
B|--13--13--13--13--13--13--13--13----------------------------------|
G|--12--12--12--12--12--12--12--12----------------------------------|
D|--14--14--14--14--14--14--14--14----------------------------------|
G|------------------------------------------------------------------|
E|------------------------------------------------------------------|

Y hoy se me escapan aquellas palabras de amor

d|-12-12-12-12-12-12----1O-1O-1O-1O----5-5-5-5-5-5----3-3-3-3-------|
B|-12-12-12-12-13-12----1O-1O-11-11----5-5-5-5-6-5----3-3-4-4-------|
G|-12-12-12-12-12-12----1O-1O-1O-1O----5-5-5-5-5-5----3-3-3-3-------|
D|-12-12-12-12-14-12----1O-1O-12-12----5-5-5-5-7-5----3-3-5-5-------|
G|-12-12-12-12-12-12----1O-1O-1O-1O----5-5-5-5-5-5----3-3-3-3-------|
E|------------------------------------------------------------------|

Que ayer nunca te dije

d|-12-12-12-12-12-12----1O-1O-1O-1O----5-5-5-5-5-5----3-3-3-3-------|
B|-12-12-12-12-13-12----1O-1O-11-11----5-5-5-5-6-5----3-3-4-4-------|
G|-12-12-12-12-12-12----1O-1O-1O-1O----5-5-5-5-5-5----3-3-3-3-------|
D|-12-12-12-12-14-12----1O-1O-12-12----5-5-5-5-7-5----3-3-5-5-------|
G|-12-12-12-12-12-12----1O-1O-1O-1O----5-5-5-5-5-5----3-3-3-3-------|
E|------------------------------------------------------------------|

Y ahora se marcha mi alma, alma de dolor

d|-12-12-12-12-12-12----1O-1O-1O-1O----5-5-5-5-5-5----3-3-3-3-------|
B|-12-12-12-12-13-12----1O-1O-11-11----5-5-5-5-6-5----3-3-4-4-------|
G|-12-12-12-12-12-12----1O-1O-1O-1O----5-5-5-5-5-5----3-3-3-3-------|
D|-12-12-12-12-14-12----1O-1O-12-12----5-5-5-5-7-5----3-3-5-5-------|
G|-12-12-12-12-12-12----1O-1O-1O-1O----5-5-5-5-5-5----3-3-3-3-------|
E|------------------------------------------------------------------|

Porque ya te fuiste (palabras de amor)

d|-7-7--5----5-5-5-5--3---------------------------------------------|
B|-8-8--6----5-5-5-5--3---------------------------------------------|
G|-7-7--5----5-5-5-5--3---------------------------------------------|
D|-9-9--7----5-5-5-5--3---------------------------------------------|
G|-7-7--5----5-5-5-5--3---------------------------------------------|
E|------------------------------------------------------------------|

Y hoy se me escapan aquellas palabras de amor

d|-7-7--5----5-5-5-5--3---------------------------------------------|
B|-8-8--6----5-5-5-5--3---------------------------------------------|
G|-7-7--5----5-5-5-5--3---------------------------------------------|
D|-9-9--7----5-5-5-5--3---------------------------------------------|
G|-7-7--5----5-5-5-5--3---------------------------------------------|
E|------------------------------------------------------------------|

Y hoy se me escapan aquellas palabras de amor

d|-7-7--5----5-5-5-5--3---------------------------------------------|
B|-8-8--6----5-5-5-5--3---------------------------------------------|
G|-7-7--5----5-5-5-5--3---------------------------------------------|
D|-9-9--7----5-5-5-5--3---------------------------------------------|
G|-7-7--5----5-5-5-5--3---------------------------------------------|
E|------------------------------------------------------------------|

Y hoy se me escapan aquellas...

d|-7-7--5----5-5-5-5--3-3---3-3---3---------------------------------|
B|-8-8--6----5-5-5-5--3-3---3-3---3---------------------------------|
G|-7-7--5----5-5-5-5--3-3---3-3---3---------------------------------|
D|-9-9--7----5-5-5-5--3-3---3-3---3---------------------------------|
G|-7-7--5----5-5-5-5--3-3---3-3---3---------------------------------|
E|------------------------------------------------------------------|

d|------------------------------------------------------------------|
B|----------------------------------------3-------------------------|
G|-3-3-3-3-----3-3-3-3-----3-----3/4--2/4---4/2-O---O-------------O-|
D|-2-2-2-2-----2-2-2-2-----2-----2/3--------------2-Oh2h3p2pO-----O-|
G|-O-O-O-O--O--O-O-O-O--O--O--O--O----------------------------2/4---|
E|------------------------------------------------------------------|

d|------------------------------------3------3------3---------------|
B|------------------------------------3------3------3---------------|
G|-3-3-3-3-----3-3-3-3-----3-----3/4----5(7)---5(7)-----------------|
D|-2-2-2-2-----2-2-2-2-----2-----2/3--------------------------------|
G|-O-O-O-O--O--O-O-O-O--O--O--O--O----------------------------------|
E|------------------------------------------------------------------|

d|------------------------------------------------------------------|
B|----------------------------------------3-------------------------|
G|-3-3-3-3-----3-3-3-3-----3-----3/4--2/4---4/2-O---O-------------O-|
D|-2-2-2-2-----2-2-2-2-----2-----2/3--------------2-Oh2h3p2pO-----O-|
G|-O-O-O-O--O--O-O-O-O--O--O--O--O----------------------------2/4---|
E|------------------------------------------------------------------|

d|----------------------------------------O-------------------------|
B|----------------------------------------O-------------------------|
G|-3-3-3-3----3-3-3----3-3----3----3/4----O-------------------------|
D|-2-2-2-2----2-2-2----2-2----2----2/3----O-------------------------|
G|-O-O-O-O----O-O-O----O-O----O----O------O-------------------------|
E|------------------------------------------------------------------|
Suggest correction
Creating personal tab
Creating personal tab
You can edit any tab online and save it as your Personal.

You can edit, replace or remove any tab part or add personal notes – all changes will be seen only by you.

Personal tabs can be accessed anytime from any device, even offline.
Learn more »
Give kudos to tab author, rate the tab!
1 2 3 4 5
comments
print report bad tab
guest
Wanna post a correction for this tab? Suggest correction