Oops, an error
Loading. Please wait.

Bienvenida Al Show tab

65 views 1 this week
no commentswrite comment
1 2 3 4 5
2 more votes to show rating
add to favorites
×
Save as Personal and add changes to this tab that will be seen only by you. Learn more ›
×
You can save this tab as Personal to edit and correct it or add notes. All changes will be seen only by you. Learn more »
launch autoscroll
font size
0
reset
how to read this tab
guitar tuner
edit
Autoscroll
slow
fast
+/-
esc
set tempo
stop
e|---------------------------------------------------------------------|
B|---------------------------------------------------------------------|
G|---5/7--8------------------------------------------------------------|
D|---------------------------------------------------------------------|
A|---------------------------------------------------------------------|
E|---------------------------------------------------------------------|

e|---------------------------------------------------------------------|
B|--------------3--------3----------2----------------------------------|
G|----------4---------2--------2----2----------------------------------|
D|----O--5---------4--------4-------2----------------------------------|
A|----------------------------------O----------------------------------|
E|---------------------------------------------------------------------|

           A                              E
e|---------------------------------------------------------------------|
B|---------------------10--10--12--12----------------------12--12------|
G|------------------------------------13--13---------------------------|
D|--------------11--11-----------------------14--14--------------------|
A|------12--12--------------------------------------14--14-------------|
E|---------------------------------------------------------------------|
            G                           D
e|---------------------------------------------------------------------|
B|----------------------------------1O--1O-----------------------------|
G|--------12--12----------------------------11--11---------------------|
D|------------------14--14--11--11------------------12--12-------------|
A|----------------------------------------------------------12---------|
E|---------------------------------------------------------------------|

           A                              E
e|---------------------------------------------------------------------|
B|---------------------10--10--12--12----------------------12--12------|
G|------------------------------------13--13---------------------------|
D|--------------11--11-----------------------14--14--------------------|
A|------12--12--------------------------------------14--14-------------|
E|---------------------------------------------------------------------|
            G                           D
e|---------------------------------------------------------------------|
B|----------------------------------1O--1O-----------------------------|
G|--------12--12----------------------------11--11---------------------|
D|------------------14--14--11--11------------------12--12-------------|
A|----------------------------------------------------------12---------|
E|---------------------------------------------------------------------|

N.C.

Bienvenida al show, al show de ver

N.C.

Como me sangran las heridas y no las ves

Bienvenida al show de entrar en mi ser

          A                 E                F#m              A7
e|-----------------|------------------|---------------|----------------|
B|-------5---5-----|-------5----5-----|------2---2----|------8---8-----|
G|-----6-------6---|-----4--------4---|----2-------2--|----6-------6---|
D|---7-----7-------|---6-----6--------|--4-----4------|--7-----7-------|
A|-----------------|------------------|---------------|----------------|
E|-----------------|------------------|---------------|----------------|

Y ver que todo se estremece y es por tu piel.

          D                 A                   B7             E7.9-
e|-----------------|-----------------|---------------------|-----O-----|
B|-------7---7-----|-------5---5-----|-----------4-----4---|-----3-----|
G|-----7-------7---|-----6-------6---|-------2-----2-------|-----1-----|
D|---7-----7-------|---7-----7-------|-----4---4-----4-----|-----3-----|
A|-----------------|-----------------|---2-----------------|-----2-----|
E|-----------------|-----------------|---------------------|-----O-----|

Bienvenida...

            A                              E
e|---------------------------------------------------------------------|
B|---------------------10--10--12--12----------------------12--12------|
G|------------------------------------13--13---------------------------|
D|--------------11--11-----------------------14--14--------------------|
A|------12--12--------------------------------------14--14-------------|
E|---------------------------------------------------------------------|
            G                              D
e|---------------------------------------------------------------------|
B|----------------------------------1O--1O-----------------------------|
G|--------12--12----------------------------11--11---------------------|
D|------------------14--14--11--11------------------12--12-------------|
A|----------------------------------------------------------12---------|
E|---------------------------------------------------------------------|
              A                              E
e|---------------------------------------------------------------------|
B|---------------------10--10--12--12----------------------12--12------|
G|------------------------------------13--13---------------------------|
D|--------------11--11-----------------------14--14--------------------|
A|------12--12--------------------------------------14--14-------------|
E|---------------------------------------------------------------------|
            G                              D
e|---------------------------------------------------------------------|
B|----------------------------------1O--1O-----------------------------|
G|--------12--12----------------------------11--11---------------------|
D|------------------14--14--11--11------------------12--12-------------|
A|----------------------------------------------------------12---------|
E|---------------------------------------------------------------------|

Cada vez que estoy quemado por ti

e|---------------------------------------------------------------------|
B|----/5--5--5--5------------------------------------------------------|
G|----/6--6--6--6------------------------------------------------------|
D|----/7--7--7--7------------------------------------------------------|
A|---------------------------------------------------------------------|
E|---------------------------------------------------------------------|

Veo tu espalda que se aleja y es que sos así

e|---------------------------2---------O-------------------------------|
B|------3----------5---------4---------3-------------------------------|
G|------2----------6---------2---------1-------------------------------|
D|------O----------7---------4---------3-------------------------------|
A|-----------------O---------2---------2-------------------------------|
E|-------------------------------------O-------------------------------|

Bienvenida a estar delante de mi

          A                  E               F#m              A7
e|-----------------|------------------|---------------|----------------|
B|-------5---5-----|-------5----5-----|------2---2----|------8---8-----|
G|-----6-------6---|-----4--------4---|----2-------2--|----6-------6---|
D|---7-----7-------|---6-----6--------|--4-----4------|--7-----7-------|
A|-----------------|------------------|---------------|----------------|
E|-----------------|------------------|---------------|----------------|

Y ver que facil te escabulles y es por no ver

          D                 A                  B7              E7.9-
e|-----------------|-----------------|---------------------|-----O-----|
B|-------7---7-----|-------5---5-----|-----------4-----4---|-----3-----|
G|-----7-------7---|-----6-------6---|-------2-----2-------|-----1-----|
D|---7-----7-------|---7-----7-------|-----4---4-----4-----|-----3-----|
A|-----------------|-----------------|---2-----------------|-----2-----|
E|-----------------|-----------------|---------------------|-----O-----|

Bienvenida...

              A                           E
e|---------------------------------------------------------------------|
B|---------------------10--10--12--12----------------------12--12------|
G|------------------------------------13--13---------------------------|
D|--------------11--11-----------------------14--14--------------------|
A|------12--12--------------------------------------14--14-------------|
E|---------------------------------------------------------------------|
              G                           D
e|---------------------------------------------------------------------|
B|----------------------------------1O--1O-----------------------------|
G|--------12--12----------------------------11--11---------------------|
D|------------------14--14--11--11------------------12--12-------------|
A|----------------------------------------------------------12---------|
E|---------------------------------------------------------------------|
              A                           E
e|---------------------------------------------------------------------|
B|---------------------10--10--12--12----------------------12--12------|
G|------------------------------------13--13---------------------------|
D|--------------11--11-----------------------14--14--------------------|
A|------12--12--------------------------------------14--14-------------|
E|---------------------------------------------------------------------|
              G                           D
e|---------------------------------------------------------------------|
B|----------------------------------1O--1O-----------------------------|
G|--------12--12----------------------------11--11---------------------|
D|------------------14--14--11--11------------------12--12-------------|
A|----------------------------------------------------------12---------|
E|---------------------------------------------------------------------|
              A                           G
e|---------------------------------------------------------------------|
B|---------------------10--10--12--12----------------------------------|
G|------------------------------------12--12---------12--12------------|
D|--------------11--11-----------------------14--14--------------------|
A|------12--12---------------------------------------------------------|
E|---------------------------------------------------------------------|
              D                          Dm
e|---------------------------------------------------------------------|
B|---------------------------------------------------------------------|
G|---11--11--------------------11--11--1O--1O--------------------------|
D|-------------12--12--------------------------12--12---9--9-----------|
A|---------------------12--12---------------------------------11--11---|
E|---------------------------------------------------------------------|
              A                           G
e|---------------------------------------------------------------------|
B|---------------------10--10--12--12----------------------------------|
G|------------------------------------12--12---------12--12------------|
D|--------------11--11-----------------------14--14--------------------|
A|------12--12---------------------------------------------------------|
E|---------------------------------------------------------------------|
              D                           Dm
e|---------------------------------------------------------------------|
B|---------------------------------------------------------------------|
G|---11--11--------------------11--11--1O--1O--------------------------|
D|-------------12--12--------------------------12--12---9--9-----------|
A|---------------------12--12---------------------------------11--11---|
E|---------------------------------------------------------------------|

SOLO:

       A       G                 D             Dm         A
e|---------------------------------------------------------------------|
B|---------------------------------------------------------------------|
G|---4(6)~~--4(6)4p2--4--2-----2--2~~-----2--4-----2--4-----------2----|
D|--------------------------4----------4--------3---------2--2h4-------|
A|---------------------------------------------------------------------|
E|---------------------------------------------------------------------|
        G                        D                    Dm
e|---------------------------------------------------------------------|
B|----------3----------------------------------------5-----5h6--5h6----|
G|----4(6)-----4(6)4--2--------2--5--4p2-----2--4/6-----6--------------|
D|------------------------2h4-------------4----------------------------|
A|---------------------------------------------------------------------|
E|---------------------------------------------------------------------|
                     A                          G
e|-----------------------------------------------------------------8---|
B|---5h6--6(8)6--5--------5--8--5h8p5-----5-------8-----1O-----1O------|
G|------------------7(9)---------------7-----7/9-----9------9----------|
D|---------------------------------------------------------------------|
A|---------------------------------------------------------------------|
E|---------------------------------------------------------------------|
         D                          Dm
e|---------------------------------------------------------------------|
B|--------1O--13p1O--13p1O------1O--13p1O--13p1O-----1O--13p1O--13p1O--|
G|--9/11--------------------11--------------------11-------------------|
D|---------------------------------------------------------------------|
A|---------------------------------------------------------------------|
E|---------------------------------------------------------------------|
              A
e|---------------------------------------------------------------------|
B|------1O--13p1O--13p1O------1O--14p1O--14p1O------1O--14p1O--14p1O---|
G|---11-------------------12--------------------12---------------------|
D|---------------------------------------------------------------------|
A|---------------------------------------------------------------------|
E|---------------------------------------------------------------------|
                G                                            D
e|----------12--11--1O--11p1Op8------1O------8h9-----------------------|
B|------1O-----------------------1O------1O-------1Op8-----8-----------|
G|--12--------------------------------------------------9-----9/7--5---|
D|---------------------------------------------------------------------|
A|---------------------------------------------------------------------|
E|---------------------------------------------------------------------|
             Dm                          A
e|--------------5--5---------5---------5---------5--5---------5--------|
B|--------------5--5---------5---------5---------5--5---------5--------|
G|----7-----7---------7(9)7-----7(9)7-----7(9)7--------7(9)7-----7(9)7-|
D|-7-----7-------------------------------------------------------------|
A|---------------------------------------------------------------------|
E|---------------------------------------------------------------------|
                                     G
e|---5-------5-----5---------------------------------------------------|
B|---5--7~~-----7------------1O------1O--12------1O--12-----------1O---|
G|---------------------9/11------11----------1O----------9--9h11-------|
D|---------------------------------------------------------------------|
A|---------------------------------------------------------------------|
E|---------------------------------------------------------------------|
              D                                Dm
e|---------12----------------------------------------------------------|
B|-12(14)------12(14)12p1O--12------12------1O--12(14)--12--1O--1O-----|
G|------------------------------11------11--------------------------11-|
D|---------------------------------------------------------------------|
A|---------------------------------------------------------------------|
E|---------------------------------------------------------------------|
     A
e|---------------------------------------------------------------------|
B|-1O--13(15)13--1O------1O~~~-----------------------------------------|
G|-------------------11------------------------------------------------|
D|---------------------------------------------------------------------|
A|---------------------------------------------------------------------|
E|---------------------------------------------------------------------|

Simbolos usados en esta tablatura:

5/7               Slide up desde el traste 5 al 7
7\5               Slide down desde el traste 7 al 5
/5                Slide up desde 'algún traste' al 5
5\                Slide down desde el 5 a 'algún traste'
5(7)              Bend desde el traste 5 al 7
5(7)5             Bend desde el trate 5 al 7 y volver al 5
5h7               Hammer del traste 5 al 7
7p5               Pull off del traste 7 al 5
~~~               Vibrato de mano izquierda
X                 Nota tapada que no suena
N.C.              No hay guitarra

            
            
Suggest correction
Creating personal tab
Creating personal tab
You can edit any tab online and save it as your Personal.

You can edit, replace or remove any tab part or add personal notes – all changes will be seen only by you.

Personal tabs can be accessed anytime from any device, even offline.
Learn more »
Give kudos to tab author, rate the tab!
1 2 3 4 5
comments
print report bad tab
guest
Wanna post a correction for this tab? Suggest correction