Oops, an error
Loading. Please wait.

La Corona Del Rey tab

44 views 1 this week
no commentswrite comment
1 2 3 4 5
3 more votes to show rating
add to favorites
×
Save as Personal and add changes to this tab that will be seen only by you. Learn more ›
×
You can save this tab as Personal to edit and correct it or add notes. All changes will be seen only by you. Learn more »
launch autoscroll
font size
0
reset
how to read this tab
guitar tuner
edit
Autoscroll
slow
fast
+/-
esc
set tempo
stop
LA CORONA DEL REY

e|-----------------------------------------------------------------|
B|-----------------------------------------------------------------|
G|-----------------------------------------------------------------|
D|--O--1O--12--12--O--5--7--7--1O--1O--5--5--O--3--5--5------------|
A|--O--1O--12--12--O--5--7--7--1O--1O--5--5--O--3--5--5------------|
D|--O--1O--12--12--O--5--7--7--1O--1O--5--5--O--3--5--5------------|

e|-----------------------------------------------------------------|
B|-----------------------------------------------------------------|
G|-----------------------------------------------------------------|
D|--O--1O--12--12--O--5--7--7--1O--1O--5--5--O--3--5--5------------|
A|--O--1O--12--12--O--5--7--7--1O--1O--5--5--O--3--5--5------------|
D|--O--1O--12--12--O--5--7--7--1O--1O--5--5--O--3--5--5------------|

e|-----------------------------------------------------------------|
B|-----------------------------------------------------------------|
G|-----9/11--11--4--4/6--6--9--9/4--4--------4--4------------------|
D|--O--------------------------------------------------------------|
A|--O--7/9----9--2--2/4--4--7--7/2--2--O--O--2--2------------------|
D|--O--------------------------------------------------------------|

e|-----------------------------------------------------------------|
B|-----------------------------------------------------------------|
G|-----------------------------------------------------------------|
D|--O--1O--12--12--O--5--7--7--1O--1O--5--5--O--3--5--5------------|
A|--O--1O--12--12--O--5--7--7--1O--1O--5--5--O--3--5--5------------|
D|--O--1O--12--12--O--5--7--7--1O--1O--5--5--O--3--5--5------------|

                        con wah-wah
e|--1O-------------------------------------------------------------|
B|--13(15)---1O-------12--------8-------12-------------------------|
G|-----------12(14)---14(16)---1O(12)---14(16)---------------------|
D|-----------------------------------------------------------------|
A|-----------------------------------------------------------------|
D|-----------------------------------------------------------------|

e|-----------------------------------------------------------------|
B|-----------------------------------------------------------------|
G|-----------------------------------------------------------------|
D|--O--1O--12--12--O--5--7--7--1O--1O--5--5--O--3--5--5------------|
A|--O--1O--12--12--O--5--7--7--1O--1O--5--5--O--3--5--5------------|
D|--O--1O--12--12--O--5--7--7--1O--1O--5--5--O--3--5--5------------|

                        con wah-wah
e|--1O-------------------------------------------------------------|
B|--13(15)---1O-------12--------8-------12-------------------------|
G|-----------12(14)---14(16)---1O(12)---14(16)---------------------|
D|-----------------------------------------------------------------|
A|-----------------------------------------------------------------|
D|-----------------------------------------------------------------|

e|-----------------------------------------------------------------|
B|-----------------------------------------------------------------|
G|-----------------------------------------------------------------|
D|--O--1O--12--12--O--1O--12--12--O--1O--12--12--O--1O--12---------|
A|--O--1O--12--12--O--1O--12--12--O--1O--12--12--O--1O--12---------|
D|--O--1O--12--12--O--1O--12--12--O--1O--12--12--O--1O--12---------|

Más queres, más tenes, te das cuenta

e|-----------------------------------------------------------------|
B|-----------------------------------------------------------------|
G|-----------------------------------------------------------------|
D|--1O/12--12--1O/12--12--1O/12--12--1O/12--12---------------------|
A|--1O/12--12--1O/12--12--1O/12--12--1O/12--12---------------------|
D|--1O/12--12--1O/12--12--1O/12--12--1O/12--12---------------------|

y te vas quedando

e|-----------------------------------------------------------------|
B|-----------------------------------------------------------------|
G|-----------------------------------------------------------------|
D|--1O--1O--5--5--3/5--5--3/5--5--3/5--5---------------------------|
A|--1O--1O--5--5--3/5--5--3/5--5--3/5--5---------------------------|
D|--1O--1O--5--5--3/5--5--3/5--5--3/5--5---------------------------|

Vas perdiendo el sentido de la realidad

e|-----------------------------------------------------------------|
B|-----------------------------------------------------------------|
G|-----------------------------------------------------------------|
D|--1O/12--12--1O/12--12--1O/12--12--1O/12--12---------------------|
A|--1O/12--12--1O/12--12--1O/12--12--1O/12--12---------------------|
D|--1O/12--12--1O/12--12--1O/12--12--1O/12--12---------------------|

y te vas quemando

e|-----------------------------------------------------------------|
B|-----------------------------------------------------------------|
G|-----------------------------------------------------------------|
D|--1O--1O--5--5--3/5--5--3/5--5--3/5--5---------------------------|
A|--1O--1O--5--5--3/5--5--3/5--5--3/5--5---------------------------|
D|--1O--1O--5--5--3/5--5--3/5--5--3/5--5---------------------------|

e|-----------------------------------------------------------------|
B|--------------15--13(15)13----------13---------------------------|
G|----------14----------------14----------12-----------------------|
D|--12--16------------------------15----------15--14(15)14---------|
A|----------------------------------------------------------15-----|
D|-----------------------------------------------------------------|

e|-----------------------------------------------------------------|
B|--12(13)12-------------------------------------------------------|
G|------------12---------------------------------------------------|
D|--------------------14-------------------------------------------|
A|----------------15-----------------------------------------------|
D|-----------------------------------------------------------------|

e|-----------------------------------------------------------------|
B|-----------------------------------------------------------------|
G|-----------------------------------------------------------------|
D|--1O--1O--12--12--1O--1O--12--12--1O--1O--12--12--1O--1O--12-----|
A|--1O--1O--12--12--1O--1O--12--12--1O--1O--12--12--1O--1O--12-----|
D|--1O--1O--12--12--1O--1O--12--12--1O--1O--12--12--1O--1O--12-----|

Más corres, más te falta para llegar

e|-----------------------------------------------------------------|
B|-----------------------------------------------------------------|
G|-----------------------------------------------------------------|
D|--1O/12--12--1O/12--12--1O/12--12--1O/12--12---------------------|
A|--1O/12--12--1O/12--12--1O/12--12--1O/12--12---------------------|
D|--1O/12--12--1O/12--12--1O/12--12--1O/12--12---------------------|

y te vas alejando

e|-----------------------------------------------------------------|
B|-----------------------------------------------------------------|
G|-----------------------------------------------------------------|
D|--1O--1O--5--5--3--5--5--3--5--5--3--5--5------------------------|
A|--1O--1O--5--5--3--5--5--3--5--5--3--5--5------------------------|
D|--1O--1O--5--5--3--5--5--3--5--5--3--5--5------------------------|

Vas perdiendo el respeto a la soledad

e|-----------------------------------------------------------------|
B|-----------------------------------------------------------------|
G|-----------------------------------------------------------------|
D|--1O/12--12--1O/12--12--1O/12--12--1O/12--12---------------------|
A|--1O/12--12--1O/12--12--1O/12--12--1O/12--12---------------------|
D|--1O/12--12--1O/12--12--1O/12--12--1O/12--12---------------------|

y la estás tocando

e|-----------------------------------------------------------------|
B|-----------------------------------------------------------------|
G|-----------------------------------------------------------------|
D|--1O--1O--5--5--3/5--5--3/5--5--3/5--5---------------------------|
A|--1O--1O--5--5--3/5--5--3/5--5--3/5--5---------------------------|
D|--1O--1O--5--5--3/5--5--3/5--5--3/5--5---------------------------|

Si no aprendes con todo lo que ves

e|-----------------------------------------------------------------|
B|--------3-----------3-----------3-----------3--------------------|
G|--------2--------------O-----------O--------O--------------------|
D|-----O-----------O-----------2-----------O-----------------------|
A|--------------------------3-----------2--------------------------|
D|--O--------2--3--------------------------------3-----------------|

es que tenes la cabeza en los pies

e|-----------------------------------------------------------------|
B|--------3-----------3-----------3-----------3--------------------|
G|--------2--------------O-----------O--------O--------------------|
D|-----O-----------O-----------2-----------O-----------------------|
A|--------------------------3-----------2--------------------------|
D|--O--------2--3--------------------------------3-----------------|

No me hace gracia sentarme a esperar

e|-----------------------------------------------------------------|
B|--------3-----------3-----------3-----------3--------------------|
G|--------2--------------O-----------O--------O--------------------|
D|-----O-----------O-----------2-----------O-----------------------|
A|--------------------------3-----------2--------------------------|
D|--O--------2--3--------------------------------3-----------------|

A ver como otro hace para robar

e|-----------------------------------------------------------------|
B|--------3-----------3-----------3-----------3--------------------|
G|--------2--------------O-----------O--------O--------------------|
D|-----O-----------O-----------2-----------O-----------------------|
A|--------------------------3-----------2--------------------------|
D|--O--------2--3--------------------------------3-----------------|

La corona del rey

e|-----------------------------------------------------------------|
B|-----------------------------------------------------------------|
G|-----------------------------------------------------------------|
D|--1O--1O--12--12--9--9--1O--1O--1O--1O--5--5--3--3--5--5---------|
A|--1O--1O--12--12--9--9--1O--1O--1O--1O--5--5--3--3--5--5---------|
D|--1O--1O--12--12--9--9--1O--1O--1O--1O--5--5--3--3--5--5---------|

e|-----------------------------------------------------------------|
B|-----------------------------------------------------------------|
G|-----------------------------------------------------------------|
D|--1O--1O--12--12--9--9--1O--1O--1O--1O--5--5--3--3--5--5---------|
A|--1O--1O--12--12--9--9--1O--1O--1O--1O--5--5--3--3--5--5---------|
D|--1O--1O--12--12--9--9--1O--1O--1O--1O--5--5--3--3--5--5---------|

e|-----------------------------------------------------------------|
B|-----------------------------------------------------------------|
G|-----------------------------------------------------------------|
D|--1O--1O--12--12--9--9--1O--1O--1O--1O--5--5--3--3--5--5---------|
A|--1O--1O--12--12--9--9--1O--1O--1O--1O--5--5--3--3--5--5---------|
D|--1O--1O--12--12--9--9--1O--1O--1O--1O--5--5--3--3--5--5---------|

                        con wah-wah
e|--1O-------------------------------------------------------------|
B|--13(15)---1O-------12--------8-------12-------------------------|
G|-----------12(14)---14(16)---1O(12)---14(16)---------------------|
D|-----------------------------------------------------------------|
A|-----------------------------------------------------------------|
D|-----------------------------------------------------------------|

e|-----------------------------------------------------------------|
B|-----------------------------------------------------------------|
G|-----------------------------------------------------------------|
D|--1O--1O--12--12--9--9--1O--1O--1O--1O--5--5--3--3--5--5---------|
A|--1O--1O--12--12--9--9--1O--1O--1O--1O--5--5--3--3--5--5---------|
D|--1O--1O--12--12--9--9--1O--1O--1O--1O--5--5--3--3--5--5---------|

                        con wah-wah
e|--1O-------------------------------------------------------------|
B|--13(15)---1O-------12--------8-------12-------------------------|
G|-----------12(14)---14(16)---1O(12)---14(16)---------------------|
D|-----------------------------------------------------------------|
A|-----------------------------------------------------------------|
D|-----------------------------------------------------------------|

e|-----------------------------------------------------------------|
B|-----------------------------------------------------------------|
G|-----------------------------------------------------------------|
D|--1O--1O--12--12--1O--1O--12--12--1O--1O--12--12--1O--1O--12-----|
A|--1O--1O--12--12--1O--1O--12--12--1O--1O--12--12--1O--1O--12-----|
D|--1O--1O--12--12--1O--1O--12--12--1O--1O--12--12--1O--1O--12-----|

Más queres, más tenes, te das cuenta

e|-----------------------------------------------------------------|
B|-----------------------------------------------------------------|
G|-----------------------------------------------------------------|
D|--1O--12--12--1O--12--12--1O--12--12--1O--12--12-----------------|
A|--1O--12--12--1O--12--12--1O--12--12--1O--12--12-----------------|
D|--1O--12--12--1O--12--12--1O--12--12--1O--12--12-----------------|

y te vas quedando

e|-----------------------------------------------------------------|
B|-----------------------------------------------------------------|
G|-----------------------------------------------------------------|
D|--1O--1O--5--5--3--5--5--3--5--5--3--5--5------------------------|
A|--1O--1O--5--5--3--5--5--3--5--5--3--5--5------------------------|
D|--1O--1O--5--5--3--5--5--3--5--5--3--5--5------------------------|

Vas perdiendo el respeto a la soledad

e|-----------------------------------------------------------------|
B|-----------------------------------------------------------------|
G|-----------------------------------------------------------------|
D|--1O--12--12--1O--12--12--1O--12--12--1O--12--12-----------------|
A|--1O--12--12--1O--12--12--1O--12--12--1O--12--12-----------------|
D|--1O--12--12--1O--12--12--1O--12--12--1O--12--12-----------------|

y la estás tocando

e|-----------------------------------------------------------------|
B|-----------------------------------------------------------------|
G|-----------------------------------------------------------------|
D|--1O--1O--5--5--3--5--5--3--5--5--3--5--5------------------------|
A|--1O--1O--5--5--3--5--5--3--5--5--3--5--5------------------------|
D|--1O--1O--5--5--3--5--5--3--5--5--3--5--5------------------------|

Si no aprendes con todo lo que ves

e|-----------------------------------------------------------------|
B|--------3-----------3-----------3-----------3--------------------|
G|--------2--------------O-----------O--------O--------------------|
D|-----O-----------O-----------2-----------O-----------------------|
A|--------------------------3-----------2--------------------------|
D|--O--------2--3--------------------------------3-----------------|

es que tenes la cabeza en los pies

e|-----------------------------------------------------------------|
B|--------3-----------3-----------3-----------3--------------------|
G|--------2--------------O-----------O--------O--------------------|
D|-----O-----------O-----------2-----------O-----------------------|
A|--------------------------3-----------2--------------------------|
D|--O--------2--3--------------------------------3-----------------|

No me hace gracia sentarme a esperar

e|-----------------------------------------------------------------|
B|--------3-----------3-----------3-----------3--------------------|
G|--------2--------------O-----------O--------O--------------------|
D|-----O-----------O-----------2-----------O-----------------------|
A|--------------------------3-----------2--------------------------|
D|--O--------2--3--------------------------------3-----------------|

A ver como otro hace para robar

e|-----------------------------------------------------------------|
B|--------3-----------3-----------3-----------3--------------------|
G|--------2--------------O-----------O--------O--------------------|
D|-----O-----------O-----------2-----------O-----------------------|
A|--------------------------3-----------2--------------------------|
D|--O--------2--3--------------------------------3-----------------|

La corona del rey

e|-----------------------------------------------------------------|
B|-----------------------------------------------------------------|
G|-----------------------------------------------------------------|
D|--1O--1O--12--12--9--9--1O--1O--1O--1O--5--5--3--3--5--5---------|
A|--1O--1O--12--12--9--9--1O--1O--1O--1O--5--5--3--3--5--5---------|
D|--1O--1O--12--12--9--9--1O--1O--1O--1O--5--5--3--3--5--5---------|

e|-----------------------------------------------------------------|
B|-----------------------------------------------------------------|
G|-----------------------------------------------------------------|
D|--1O--1O--12--12--9--9--1O--1O--1O--1O--5--5--3--3--5--5---------|
A|--1O--1O--12--12--9--9--1O--1O--1O--1O--5--5--3--3--5--5---------|
D|--1O--1O--12--12--9--9--1O--1O--1O--1O--5--5--3--3--5--5---------|

e|-----------------------------------------------------------------|
B|-----------------------------------------------------------------|
G|-----------------------------------------------------------------|
D|--1O--1O--12--12--9--9--1O--1O--1O--1O--5--5--3--3--5--5---------|
A|--1O--1O--12--12--9--9--1O--1O--1O--1O--5--5--3--3--5--5---------|
D|--1O--1O--12--12--9--9--1O--1O--1O--1O--5--5--3--3--5--5---------|

e|-----------------------------------------------------------------|
B|-----------------------------------------------------------------|
G|-----------------------------------------------------------------|
D|--1O--1O--12--12--9--9--1O--1O--1O--1O--5--5--3--3--5--5---------|
A|--1O--1O--12--12--9--9--1O--1O--1O--1O--5--5--3--3--5--5---------|
D|--1O--1O--12--12--9--9--1O--1O--1O--1O--5--5--3--3--5--5---------|

SOLO

e|-----------------------------------------------------------------|
B|-----------------------------------------------------------------|
G|--12--12--12--12--12--12--12--12--12--12--12--12--12--12--12-----|
D|---O---O---O---O---O---O---O---O---O---O---O---O---O---O---O-----|
A|-----------------------------------------------------------------|
D|-----------------------------------------------------------------|

e|-----------------------------------------------------------------|
B|-----------------------------------------------------------------|
G|--12--12--1O(1O.5)--12--1O(1O.5)--12--1O(1O.5)--12--1O(1O.5)-----|
D|---O---O---O---------O---O---------O---O---------O---O-----------|
A|-----------------------------------------------------------------|
D|-----------------------------------------------------------------|

e|-----------------------------------------------------------------|
B|-----------------------------------------------------------------|
G|--12--1Oh12p1Op9--1O--9h1Op9p7--9(1O)9p7--9--7h9p7p5--7----------|
D|---O---O-----------O--O---------O---------O--O--------O----------|
A|-----------------------------------------------------------------|
D|-----------------------------------------------------------------|

e|-----------------------------------------------------------------|
B|-----------------------------------------------------------------|
G|--5h7p5p4--5--4h5p4p2--4(5)4p2--4--2h4p2pO-----------------------|
D|--O--------O--O--------O--------O--O-----------------3(5)--------|
A|--------------------------------------------5--------------------|
D|-----------------------------------------------------------------|

e|----------1O----------------------1O--------------13-------------|
B|--13(15)------13------1O--------------1O--13(15)------(15)13-----|
G|------------------12------12(14)---------------------------------|
D|-----------------------------------------------------------------|
A|-----------------------------------------------------------------|
D|-----------------------------------------------------------------|

e|------------------1O-----------------1O----------------------1O--|
B|--1O--13--------------13p1O--13(15)------13--1O----------1O------|
G|----------12(14)---------------------------------12(14)----------|
D|-----------------------------------------------------------------|
A|-----------------------------------------------------------------|
D|-----------------------------------------------------------------|

e|-----------------------------------------------------------------|
B|--13p1O--------------------1O(13)1O----------1O------------------|
G|---------12(14)12--1O----------------13--12------13--12(14)------|
D|-----------------------12----------------------------------------|
A|-----------------------------------------------------------------|
D|-----------------------------------------------------------------|

e|-----------------------------------------------------------------|
B|-----------------------------------------------------------------|
G|--12--1O---------------------------------------------------------|
D|----------O--1O--12----------------------------------------------|
A|----------O--1O--12----------------------------------------------|
D|----------O--1O--12----------------------------------------------|

e|-----------------------------------------------------------------|
B|-----------------------------------------------------------------|
G|-----------------------------------------------------------------|
D|-O-O-O--2h3--2--O-O--5h7--5--O-O--9h1O--9--O-O--5h7--5--O-O-O----|
A|-O-O-O--2h3--2--O-O--5h7--5--O-O--9h1O--9--O-O--5h7--5--O-O-O----|
D|-O-O-O--2h3--2--O-O--5h7--5--O-O--9h1O--9--O-O--5h7--5--O-O-O----|

e|-----------------------------------------------------------------|
B|-----------------------------------------------------------------|
G|-----------------------------------------------------------------|
D|-O-O-O--2h3--2--O-O--5h7--5--O-O--9h1O--9--O-O--5h7--5--O-O-O----|
A|-O-O-O--2h3--2--O-O--5h7--5--O-O--9h1O--9--O-O--5h7--5--O-O-O----|
D|-O-O-O--2h3--2--O-O--5h7--5--O-O--9h1O--9--O-O--5h7--5--O-O-O----|

e|-----------------------------------------------------------------|
B|-----------------------------------------------------------------|
G|-----------------------------------------------------------------|
D|-O-O-O--2h3--2--O-O--5h7--5--O-O--9h1O--9--O-O--5h7--5--O-O-O----|
A|-O-O-O--2h3--2--O-O--5h7--5--O-O--9h1O--9--O-O--5h7--5--O-O-O----|
D|-O-O-O--2h3--2--O-O--5h7--5--O-O--9h1O--9--O-O--5h7--5--O-O-O----|

e|-----------------------------------------------------------------|
B|-----------------------------------------------------------------|
G|-----------------------------------------------------------------|
D|-O-O-O--2h3--2--O-O--5h7--5--O-O--9h1O--9--O-O--5h7--5--O-O-O----|
A|-O-O-O--2h3--2--O-O--5h7--5--O-O--9h1O--9--O-O--5h7--5--O-O-O----|
D|-O-O-O--2h3--2--O-O--5h7--5--O-O--9h1O--9--O-O--5h7--5--O-O-O----|

e|-----------------------------------------------------------------|
B|-----------------------------------------------------------------|
G|-----------------------------------------------------------------|
D|-O-O-O--2h3--2--O-O--5h7--5--O-O--9h1O--9--O-O--5h7--5--O-O-O----|
A|-O-O-O--2h3--2--O-O--5h7--5--O-O--9h1O--9--O-O--5h7--5--O-O-O----|
D|-O-O-O--2h3--2--O-O--5h7--5--O-O--9h1O--9--O-O--5h7--5--O-O-O----|

e|-----------------------------------------------------------------|
B|-----------------------------------------------------------------|
G|-----------------------------------------------------------------|
D|-O-O-O--2h3--2--O-O--5h7--5--O-O--9h1O--9--O-O--5h7--5--O-O-O----|
A|-O-O-O--2h3--2--O-O--5h7--5--O-O--9h1O--9--O-O--5h7--5--O-O-O----|
D|-O-O-O--2h3--2--O-O--5h7--5--O-O--9h1O--9--O-O--5h7--5--O-O-O----|

e|-----------------------------------------------------------------|
B|-----------------------------------------------------------------|
G|-----------------------------------------------------------------|
D|-O-O-O--2h3--2--O-O--5h7--5--O-O--9h1O--9------------------------|
A|-O-O-O--2h3--2--O-O--5h7--5--O-O--9h1O--9------------------------|
D|-O-O-O--2h3--2--O-O--5h7--5--O-O--9h1O--9------------------------|

e|-----------------------------------------------------------------|
B|-----------------------------------------------------------------|
G|-----------------------------------------------------------------|
D|-O-O-O--2h3--2--O-O--5h7--5--O-O--9h1O--9------------------------|
A|-O-O-O--2h3--2--O-O--5h7--5--O-O--9h1O--9------------------------|
D|-O-O-O--2h3--2--O-O--5h7--5--O-O--9h1O--9------------------------|

e|-----------------------------------------------------------------|
B|-----------------------------------------------------------------|
G|-----------------------------------------------------------------|
D|-O-O-O--2h3--2--O-O--5h7--5--O-O--9h1O--9------------------------|
A|-O-O-O--2h3--2--O-O--5h7--5--O-O--9h1O--9------------------------|
D|-O-O-O--2h3--2--O-O--5h7--5--O-O--9h1O--9------------------------|

e|-----------------------------------------------------------------|
B|-----------------------------------------------------------------|
G|-----------------------------------------------------------------|
D|-O-O-O--2h3--2--O-O--5h7--5--O-O--9h1O--9------------------------|
A|-O-O-O--2h3--2--O-O--5h7--5--O-O--9h1O--9------------------------|
D|-O-O-O--2h3--2--O-O--5h7--5--O-O--9h1O--9------------------------|

Si no aprendes con todo lo que ves

e|-----------------------------------------------------------------|
B|--------3-----------3-----------3-----------3--------------------|
G|--------2--------------O-----------O--------O--------------------|
D|-----O-----------O-----------2-----------O-----------------------|
A|--------------------------3-----------2--------------------------|
D|--O--------2--3--------------------------------3-----------------|

es que tenes la cabeza en los pies

e|-----------------------------------------------------------------|
B|--------3-----------3-----------3-----------3--------------------|
G|--------2--------------O-----------O--------O--------------------|
D|-----O-----------O-----------2-----------O-----------------------|
A|--------------------------3-----------2--------------------------|
D|--O--------2--3--------------------------------3-----------------|

No me hace gracia sentarme a esperar

e|-----------------------------------------------------------------|
B|--------3-----------3-----------3-----------3--------------------|
G|--------2--------------O-----------O--------O--------------------|
D|-----O-----------O-----------2-----------O-----------------------|
A|--------------------------3-----------2--------------------------|
D|--O--------2--3--------------------------------3-----------------|

A ver como otro hace para robar

e|-----------------------------------------------------------------|
B|--------3-----------3-----------3-----------3--------------------|
G|--------2--------------O-----------O--------O--------------------|
D|-----O-----------O-----------2-----------O-----------------------|
A|--------------------------3-----------2--------------------------|
D|--O--------2--3--------------------------------3-----------------|

Si no aprendes con todo lo que ves

e|-----------------------------------------------------------------|
B|--------3-----------3-----------3-----------3--------------------|
G|--------2--------------O-----------O--------O--------------------|
D|-----O-----------O-----------2-----------O-----------------------|
A|--------------------------3-----------2--------------------------|
D|--O--------2--3--------------------------------3-----------------|

es que tenes la cabeza en los pies

e|-----------------------------------------------------------------|
B|--------3-----------3-----------3-----------3--------------------|
G|--------2--------------O-----------O--------O--------------------|
D|-----O-----------O-----------2-----------O-----------------------|
A|--------------------------3-----------2--------------------------|
D|--O--------2--3--------------------------------3-----------------|

No me hace gracia sentarme a esperar

e|-----------------------------------------------------------------|
B|--------3-----------3-----------3-----------3--------------------|
G|--------2--------------O-----------O--------O--------------------|
D|-----O-----------O-----------2-----------O-----------------------|
A|--------------------------3-----------2--------------------------|
D|--O--------2--3--------------------------------3-----------------|

A ver como otro hace para robar

e|-----------------------------------------------------------------|
B|--------3-----------3-----------3-----------3--------------------|
G|--------2--------------O-----------O--------O--------------------|
D|-----O-----------O-----------2-----------O-----------------------|
A|--------------------------3-----------2--------------------------|
D|--O--------2--3--------------------------------3-----------------|

La corona del rey

e|-----------------------------------------------------------------|
B|-----------------------------------------------------------------|
G|-----------------------------------------------------------------|
D|--1O--1O--12--12--9--9--1O--1O--1O--1O--5--5--3--3--5--5---------|
A|--1O--1O--12--12--9--9--1O--1O--1O--1O--5--5--3--3--5--5---------|
D|--1O--1O--12--12--9--9--1O--1O--1O--1O--5--5--3--3--5--5---------|

e|-----------------------------------------------------------------|
B|-----------------------------------------------------------------|
G|-----------------------------------------------------------------|
D|--1O--1O--12--12--9--9--1O--1O--1O--1O--5--5--3--3--5--5---------|
A|--1O--1O--12--12--9--9--1O--1O--1O--1O--5--5--3--3--5--5---------|
D|--1O--1O--12--12--9--9--1O--1O--1O--1O--5--5--3--3--5--5---------|

e|-----------------------------------------------------------------|
B|-----------------------------------------------------------------|
G|-----------------------------------------------------------------|
D|--1O--1O--12--12--9--9--1O--1O--1O--1O--5--5--3--3--5--5---------|
A|--1O--1O--12--12--9--9--1O--1O--1O--1O--5--5--3--3--5--5---------|
D|--1O--1O--12--12--9--9--1O--1O--1O--1O--5--5--3--3--5--5---------|
                        con wah-wah
e|--1O-------------------------------------------------------------|
B|--13(15)---1O-------12--------8-------12-------------------------|
G|-----------12(14)---14(16)---1O(12)---14(16)---------------------|
D|-----------------------------------------------------------------|
A|-----------------------------------------------------------------|
D|-----------------------------------------------------------------|

e|-----------------------------------------------------------------|
B|-----------------------------------------------------------------|
G|-----------------------------------------------------------------|
D|--1O--1O--12--12--9--9--1O--1O--1O--1O--5--5--3--3--5--5---------|
A|--1O--1O--12--12--9--9--1O--1O--1O--1O--5--5--3--3--5--5---------|
D|--1O--1O--12--12--9--9--1O--1O--1O--1O--5--5--3--3--5--5---------|
                        con wah-wah
e|--1O-------------------------------------------------------------|
B|--13(15)---1O-------12--------8-------12-------------------------|
G|-----------12(14)---14(16)---1O(12)---14(16)---------------------|
D|-----------------------------------------------------------------|
A|-----------------------------------------------------------------|
D|-----------------------------------------------------------------|

e|------------------------------------x--x--x--x--x--x-------------|
B|------------------------------------x--x--x--x--x--x-------------|
G|------------------------------------x--x--x--x--x--x-------------|
D|--1O--1O--5--5--3--3--5--5--1O--1O--x--x--x--x--x--x--3--3--5--5-|
A|--1O--1O--5--5--3--3--5--5--1O--1O--x--x--x--x--x--x--3--3--5--5-|
D|--1O--1O--5--5--3--3--5--5--1O--1O--x--x--x--x--x--x--3--3--5--5-|

            
            
Suggest correction
Creating personal tab
Creating personal tab
You can edit any tab online and save it as your Personal.

You can edit, replace or remove any tab part or add personal notes – all changes will be seen only by you.

Personal tabs can be accessed anytime from any device, even offline.
Learn more »
Give kudos to tab author, rate the tab!
1 2 3 4 5
comments
print report bad tab
guest
Wanna post a correction for this tab? Suggest correction