Oops, an error
Loading. Please wait.

Todo Esta Bien tab

version 1
version 1

Whole song

27 views 1 this week
no commentswrite comment
1 2 3 4 5
3 more votes to show rating
add to favorites
×
Save as Personal and add changes to this tab that will be seen only by you. Learn more ›
×
You can save this tab as Personal to edit and correct it or add notes. All changes will be seen only by you. Learn more »
launch autoscroll
font size
0
reset
how to read this tab
guitar tuner
edit
Autoscroll
slow
fast
+/-
esc
set tempo
stop
e|---------------------------------------------------------------------|
B|---------2----2----3----2--------------------------------2-----------|
G|---------2----2----2----2---------5--5-------7--7--------2-----------|
D|---------2----2----4----2---------7--7-------4--4--------2-----------|
A|---------O----O----O----O----O-----------O----------O----O-----------|
E|---------------------------------------------------------------------|

Oh yeah !!!

e|---------------------------------------------------------------------|
B|---------2----2----3----2--------------------------------2-----------|
G|---------2----2----2----2---------5--5-------7--7--------2-----------|
D|---------2----2----4----2---------7--7-------4--4--------2-----------|
A|---------O----O----O----O----O-----------O----------O----O-----------|
E|---------------------------------------------------------------------|

Y yo la vi parada ahí con cara de no decir no

e|---------------------------------------------------------------------|
B|---------2----2----3----2--------------------------------2-----------|
G|---------2----2----2----2---------5--5-------7--7--------2-----------|
D|---------2----2----4----2---------7--7-------4--4--------2-----------|
A|---------O----O----O----O----O-----------O----------O----O-----------|
E|---------------------------------------------------------------------|

Me animé, me acerqué pensando en llevarla al colchón.

e|---------------------------------------------------------------------|
B|-----------2----2----3----2----------------------------2-------------|
G|-----------2----2----2----2---------5--5-------7--7----2-------------|
D|-----------2----2----4----2---------7--7-------4--4----2-------------|
A|-----------O----O----O----O----O-----------O-----------O-------------|
E|---------------------------------------------------------------------|

Le dije: nena, que bien que estás, por qué no nos vamos de acá.

1ª Guitarra
e|---------------------------------------------------------------------|
B|---------2----2----3----2--------------------------------2-----------|
G|---------2----2----2----2---------5--5-------7--7--------2-----------|
D|---------2----2----4----2---------7--7-------4--4--------2-----------|
A|---------O----O----O----O----O-----------O----------O----O-----------|
E|---------------------------------------------------------------------|

2ª Guitarra
e|---------------------------------------------------------------------|
B|---------5--5--7--5-----------------8----------7---------5-----------|
G|---------6--6--7--6-----------------7----------7---------6-----------|
D|---------7--7--7--7-----------------5----------7---------7-----------|
A|---------O--O--O--O----------O------O----O-----O----O----O-----------|
E|---------------------------------------------------------------------|


Ella miró y sonrió ni un minuto más duró.

1ª Guitarra
e|---------------------------------------------------------------------|
B|---------2----2----3----2--------------------------------2-----------|
G|---------2----2----2----2---------5--5-------7--7--------2-----------|
D|---------2----2----4----2---------7--7-------4--4--------2-----------|
A|---------O----O----O----O----O-----------O----------O----O-----------|
E|---------------------------------------------------------------------|

2ª Guitarra
e|---------------------------------------------------------------------|
B|---------5--5--7--5-----------------8----------7---------5-----------|
G|---------6--6--7--6-----------------7----------7---------6-----------|
D|---------7--7--7--7-----------------5----------7---------7-----------|
A|---------O--O--O--O----------O------O----O-----O----O----O-----------|
E|---------------------------------------------------------------------|

Todo está bien, nena ahora todo está bien.

1ª Guitarra
e|-----------------------3-------------------------------5-------------|
B|-------------2---------3----------3----------2---------5-------------|
G|-------------2---------O----------2----------2-----------------------|
D|-------------2---------O----------O----------2-----------------------|
A|-------------O---------X----------X----------O-----------------------|
E|-----------------------3----------2----------------------------------|

2ª Guitarra
e|---------------------------5-----------------------------------------|
B|---------------5-----------3-----------3-----------5-----------------|
G|---------------6-----------4-----------2-----------6-----------------|
D|---------------7-----------5-----------4-----------7-----------------|
A|---------------O-----------------------O-----------O-----------------|
E|---------------------------------------------------------------------|

Todo está bien, nena ahora todo está bien.

1ª Guitarra
e|-----------------------3-------------------------------5-------------|
B|-------------2---------3----------3----------2---------5-------------|
G|-------------2---------O----------2----------2-----------------------|
D|-------------2---------O----------O----------2-----------------------|
A|-------------O---------X----------X----------O-----------------------|
E|-----------------------3----------2----------------------------------|

2ª Guitarra
e|---------------------------5-----------------------------------------|
B|---------------5-----------3-----------3-----------5-----------------|
G|---------------6-----------4-----------2-----------6-----------------|
D|---------------7-----------5-----------4-----------7-----------------|
A|---------------O-----------------------O-----------O-----------------|
E|---------------------------------------------------------------------|

1ª Guitarra
e|---------------------------------------------------------------------|
B|---------2----2----3----2--------------------------------2-----------|
G|---------2----2----2----2---------5--5-------7--7--------2-----------|
D|---------2----2----4----2---------7--7-------4--4--------2-----------|
A|---------O----O----O----O----O-----------O----------O----O-----------|
E|---------------------------------------------------------------------|

2ª Guitarra
e|---------------------------5-----------------------------------------|
B|---------------5-----------3-----------3-----------5-----------------|
G|---------------6-----------4-----------2-----------6-----------------|
D|---------------7-----------5-----------4-----------7-----------------|
A|---------------O-----------------------O-----------O-----------------|
E|---------------------------------------------------------------------|

1ª Guitarra
e|---------------------------------------------------------------------|
B|---------2----2----3----2--------------------------------2-----------|
G|---------2----2----2----2---------5--5-------7--7--------2-----------|
D|---------2----2----4----2---------7--7-------4--4--------2-----------|
A|---------O----O----O----O----O-----------O----------O----O-----------|
E|---------------------------------------------------------------------|

2ª Guitarra
e|---------------------------5-----------------------------------------|
B|---------------5-----------3-----------3-----------5-----------------|
G|---------------6-----------4-----------2-----------6-----------------|
D|---------------7-----------5-----------4-----------7-----------------|
A|---------------O-----------------------O-----------O-----------------|
E|---------------------------------------------------------------------|

LA traje A casa A MI lugar, pensando como iba a encarar.

1ª Guitarra
e|---------------------------------------------------------------------|
B|---------2----2----3----2--------------------------------2-----------|
G|---------2----2----2----2---------5--5-------7--7--------2-----------|
D|---------2----2----4----2---------7--7-------4--4--------2-----------|
A|---------O----O----O----O----O-----------O----------O----O-----------|
E|---------------------------------------------------------------------|

2ª Guitarra
e|---------------------------------------------------------------------|
B|---------5--5--7--5-----------------8----------7---------5-----------|
G|---------6--6--7--6-----------------7----------7---------6-----------|
D|---------7--7--7--7-----------------5----------7---------7-----------|
A|---------O--O--O--O----------O------O----O-----O----O----O-----------|
E|---------------------------------------------------------------------|

Me dijo: fiera, a qué jugás, vos ya me querés encamar.

1ª Guitarra
e|---------------------------------------------------------------------|
B|---------2----2----3----2--------------------------------2-----------|
G|---------2----2----2----2---------5--5-------7--7--------2-----------|
D|---------2----2----4----2---------7--7-------4--4--------2-----------|
A|---------O----O----O----O----O-----------O----------O----O-----------|
E|---------------------------------------------------------------------|

2ª Guitarra
e|---------------------------------------------------------------------|
B|---------5--5--7--5-----------------8----------7---------5-----------|
G|---------6--6--7--6-----------------7----------7---------6-----------|
D|---------7--7--7--7-----------------5----------7---------7-----------|
A|---------O--O--O--O----------O------O----O-----O----O----O-----------|
E|---------------------------------------------------------------------|

Le dije: suave, nena afloja, no crees que este amor va a durar.

1ª Guitarra
e|---------------------------------------------------------------------|
B|---------2----2----3----2--------------------------------2-----------|
G|---------2----2----2----2---------5--5-------7--7--------2-----------|
D|---------2----2----4----2---------7--7-------4--4--------2-----------|
A|---------O----O----O----O----O-----------O----------O----O-----------|
E|---------------------------------------------------------------------|

2ª Guitarra
e|---------------------------------------------------------------------|
B|---------5--5--7--5-----------------8----------7---------5-----------|
G|---------6--6--7--6-----------------7----------7---------6-----------|
D|---------7--7--7--7-----------------5----------7---------7-----------|
A|---------O--O--O--O----------O------O----O-----O----O----O-----------|
E|---------------------------------------------------------------------|

Y dijo: amor? Ah no!, ahora me querés cantar amor.

1ª Guitarra
e|---------------------------------------------------------------------|
B|---------2----2----3----2--------------------------------2-----------|
G|---------2----2----2----2---------5--5-------7--7--------2-----------|
D|---------2----2----4----2---------7--7-------4--4--------2-----------|
A|---------O----O----O----O----O-----------O----------O----O-----------|
E|---------------------------------------------------------------------|

2ª Guitarra
e|---------------------------------------------------------------------|
B|---------5--5--7--5-----------------8----------7---------5-----------|
G|---------6--6--7--6-----------------7----------7---------6-----------|
D|---------7--7--7--7-----------------5----------7---------7-----------|
A|---------O--O--O--O----------O------O----O-----O----O----O-----------|
E|---------------------------------------------------------------------|

Todo está bien, nena ahora todo está bien.

1ª Guitarra
e|-----------------------3-------------------------------5-------------|
B|-------------2---------3----------3----------2---------5-------------|
G|-------------2---------O----------2----------2-----------------------|
D|-------------2---------O----------O----------2-----------------------|
A|-------------O---------X----------X----------O-----------------------|
E|-----------------------3----------2----------------------------------|

2ª Guitarra
e|---------------------------5-----------------------------------------|
B|---------------5-----------3-----------3-----------5-----------------|
G|---------------6-----------4-----------2-----------6-----------------|
D|---------------7-----------5-----------4-----------7-----------------|
A|---------------O-----------------------O-----------O-----------------|
E|---------------------------------------------------------------------|

Todo está bien, nena ahora todo está bien.

1ª Guitarra
e|-----------------------3-------------------------------5-------------|
B|-------------2---------3----------3----------2---------5-------------|
G|-------------2---------O----------2----------2-----------------------|
D|-------------2---------O----------O----------2-----------------------|
A|-------------O---------X----------X----------O-----------------------|
E|-----------------------3----------2----------------------------------|

2ª Guitarra
e|---------------------------5-----------------------------------------|
B|---------------5-----------3-----------3-----------5-----------------|
G|---------------6-----------4-----------2-----------6-----------------|
D|---------------7-----------5-----------4-----------7-----------------|
A|---------------O-----------------------O-----------O-----------------|
E|---------------------------------------------------------------------|

Todo está bien, nena ahora todo está bien.

1º Guitarra
e|-----------------------3-------------------------------5-------------|
B|-------------2---------3----------3----------2---------5-------------|
G|-------------2---------O----------2----------2-----------------------|
D|-------------2---------O----------O----------2-----------------------|
A|-------------O---------X----------X----------O-----------------------|
E|-----------------------3----------2----------------------------------|

2ª Guitarra
e|---------------------------5-----------------------------------------|
B|---------------5-----------3-----------3-----------5-----------------|
G|---------------6-----------4-----------2-----------6-----------------|
D|---------------7-----------5-----------4-----------7-----------------|
A|---------------O-----------------------O-----------O-----------------|
E|---------------------------------------------------------------------|

Todo está bien, nena ahora todo está bien.

1ª Guitarra
e|-----------------------3-------------------------------5-------------|
B|-------------2---------3----------3----------2---------5-------------|
G|-------------2---------O----------2----------2-----------------------|
D|-------------2---------O----------O----------2-----------------------|
A|-------------O---------X----------X----------O-----------------------|
E|-----------------------3----------2----------------------------------|

2ª Guitarra
e|---------------------------5-----------------------------------------|
B|---------------5-----------3-----------3-----------5-----------------|
G|---------------6-----------4-----------2-----------6-----------------|
D|---------------7-----------5-----------4-----------7-----------------|
A|---------------O-----------------------O-----------O-----------------|
E|---------------------------------------------------------------------|

SOLO:

1ª Guitarra
e|---------------------------------------------------------------------|
B|---------------------------------------------------------------------|
G|--------------------5-------7(9)7--5-----5---------------------------|
D|------------5----------7--------------7-----------5------------------|
A|------5/7------7p5--------------------------7--7-----7--6--5--3--5---|
E|---------------------------------------------------------------------|

2ª Guitarra
e|---------------------------------------------------------------------|
B|---------2----2----3----2--------------------------------2-----------|
G|---------2----2----2----2---------5--5-------7--7--------2-----------|
D|---------2----2----4----2---------7--7-------4--4--------2-----------|
A|---------O----O----O----O----O-----------O----------O----O-----------|
E|---------------------------------------------------------------------|

1ª Guitarra
e|---------------------------------------------------------------------|
B|-----------------------------------------------------7(8)7p5---------|
G|----------2--2------2--4(5)4p2--4(6)--7(9)7p5-----5-----------5------|
D|-----2h4-------2h4-----------------------------7-----------------7---|
A|---------------------------------------------------------------------|
E|---------------------------------------------------------------------|

2ª Guitarra
e|---------------------------------------------------------------------|
B|---------2----2----3----2--------------------------------2-----------|
G|---------2----2----2----2---------5--5-------7--7--------2-----------|
D|---------2----2----4----2---------7--7-------4--4--------2-----------|
A|---------O----O----O----O----O-----------O----------O----O-----------|
E|---------------------------------------------------------------------|

1ª Guitarra
e|---------------------------------------------------------------------|
B|-8(1O)--8--(1O)--8--(1O)--8--(1O)--8--(1O)--8--(1O)--8--(1O)--8(1O)--|
G|---------------------------------------------------------------------|
D|---------------------------------------------------------------------|
A|---------------------------------------------------------------------|
E|---------------------------------------------------------------------|

e|--5----------------------------------------------12(15)--11--1O------|
B|-----5--8p5-----5--------------------1O--1O--1O------------------12--|
G|-------------8-----8p7p5-----5--9/11---------------------------------|
D|--------------------------7------------------------------------------|
A|---------------------------------------------------------------------|
E|---------------------------------------------------------------------|

2ª Guitarra
e|---------------------------------------------------------------------|
B|---------2----2----3----2--------------------------------2-----------|
G|---------2----2----2----2---------5--5-------7--7--------2-----------|
D|---------2----2----4----2---------7--7-------4--4--------2-----------|
A|---------O----O----O----O----O-----------O----------O----O-----------|
E|---------------------------------------------------------------------|

1ª Guitarra
e|----------------18------18------18------------15-------15-------15---|
B|--18(2O)-18(2O)----(2O)----(2O)----(2O)-15h18----15h18----15h18------|
G|---------------------------------------------------------------------|
D|---------------------------------------------------------------------|
A|---------------------------------------------------------------------|
E|---------------------------------------------------------------------|

1ª Guitarra
e|--------15-------15-------15-----------------------------------------|
B|--15h18----15h18----15h18----15--18(2O)--18(2O)----------------------|
G|---------------------------------------------------------------------|
D|---------------------------------------------------------------------|
A|---------------------------------------------------------------------|
E|---------------------------------------------------------------------|

2ª Guitarra
e|---------------------------------------------------------------------|
B|---------2----2----3----2--------------------------------2-----------|
G|---------2----2----2----2---------5--5-------7--7--------2-----------|
D|---------2----2----4----2---------7--7-------4--4--------2-----------|
A|---------O----O----O----O----O-----------O----------O----O-----------|
E|---------------------------------------------------------------------|

Todo está bien, nena ahora todo está bien.

e|-----------------------3-------------------------------5-------------|
B|-------------2---------3----------3----------2---------5-------------|
G|-------------2---------O----------2----------2-----------------------|
D|-------------2---------O----------O----------2-----------------------|
A|-------------O---------X----------X----------O-----------------------|
E|-----------------------3----------2----------------------------------|

2ª Guitarra
e|---------------------------5-----------------------------------------|
B|---------------5-----------3-----------3-----------5-----------------|
G|---------------6-----------4-----------2-----------6-----------------|
D|---------------7-----------5-----------4-----------7-----------------|
A|---------------O-----------------------O-----------O-----------------|
E|---------------------------------------------------------------------|

Todo está bien, nena ahora todo está bien.

1ª Guitarra
e|-----------------------3-------------------------------5-------------|
B|-------------2---------3----------3----------2---------5-------------|
G|-------------2---------O----------2----------2-----------------------|
D|-------------2---------O----------O----------2-----------------------|
A|-------------O---------X----------X----------O-----------------------|
E|-----------------------3----------2----------------------------------|

2ª Guitarra
e|---------------------------5-----------------------------------------|
B|---------------5-----------3-----------3-----------5-----------------|
G|---------------6-----------4-----------2-----------6-----------------|
D|---------------7-----------5-----------4-----------7-----------------|
A|---------------O-----------------------O-----------O-----------------|
E|---------------------------------------------------------------------|

1ª Guitarra
e|---------------------------------------------------------------------|
B|---------2----2----3----2--------------------------------2-----------|
G|---------2----2----2----2---------5--5-------7--7--------2-----------|
D|---------2----2----4----2---------7--7-------4--4--------2-----------|
A|---------O----O----O----O----O-----------O----------O----O-----------|
E|---------------------------------------------------------------------|

2ª Guitarra
e|---------------------------5-----------------------------------------|
B|---------------5-----------3-----------3-----------5-----------------|
G|---------------6-----------4-----------2-----------6-----------------|
D|---------------7-----------5-----------4-----------7-----------------|
A|---------------O-----------------------O-----------O-----------------|
E|---------------------------------------------------------------------|

1ª Guitarra
e|---------------------------------------------------------------------|
B|---------2----2----3----2--------------------------------2-----------|
G|---------2----2----2----2---------5--5-------7--7--------2-----------|
D|---------2----2----4----2---------7--7-------4--4--------2-----------|
A|---------O----O----O----O----O-----------O----------O----O-----------|
E|---------------------------------------------------------------------|

2ª Guitarra
e|---------------------------5-----------------------------------------|
B|---------------5-----------3-----------3-----------5-----------------|
G|---------------6-----------4-----------2-----------6-----------------|
D|---------------7-----------5-----------4-----------7-----------------|
A|---------------O-----------------------O-----------O-----------------|
E|---------------------------------------------------------------------|

            
            
Suggest correction
Creating personal tab
Creating personal tab
You can edit any tab online and save it as your Personal.

You can edit, replace or remove any tab part or add personal notes – all changes will be seen only by you.

Personal tabs can be accessed anytime from any device, even offline.
Learn more »
Give kudos to tab author, rate the tab!
1 2 3 4 5
comments
print report bad tab
guest
Wanna post a correction for this tab? Suggest correction