Oops, an error
Loading. Please wait.

Tu Eres El Agua Viva tab

24 views 1 this week
no commentswrite comment
1 2 3 4 5
3 more votes to show rating
add to favorites
×
Save as Personal and add changes to this tab that will be seen only by you. Learn more ›
×
You can save this tab as Personal to edit and correct it or add notes. All changes will be seen only by you. Learn more »
launch autoscroll
font size
0
reset
how to read this tab
guitar tuner
edit
Autoscroll
slow
fast
+/-
esc
set tempo
stop
TÚ  ERES  EL  AGUA  VIVA
(Ez 36,  23-38)

e|-------0-------1------------3------3-------------0--0---------0-----|
B|-1---1---1---3---3--------3------3---3-----1---1----0-------0---0---|
G|---2-------2-------2--2-0------0-------0-----0------1-----1-------1-|
D|-----------------------------------------2----------2---------------|
A|-0-----------------0-----------------------3--------2--2------------|
E|----------------------------3-----------------------0---------------|


LAm                             REm
Manifiesta tu Santidad en mi, tómame de entre lo que me dispersé
SOL                               DO                  MI
Recógeme de donde me perdí  y  llévame de nuevo al corazón.
LAm                       REm
Tú eres el agua viva, tú eres el agua pura,
  SOL                 DO                     MI
Inúndame, inúndame y todo se transformará en mi. (bis)


e|-------0-------1------------3------3-------------0--0---------0-----|
B|-1---1---1---3---3--------3------3---3-----1---1----0-------0---0---|
G|---2-------2-------2--2-0------0-------0-----0------1-----1-------1-|
D|-----------------------------------------2----------2---------------|
A|-0-----------------0-----------------------3--------2--2------------|
E|----------------------------3-----------------------0---------------|


LAm                              REm
Mi tierra se abrirá a tu lluvia, mis rocas ya no harán daño a nadie,
SOL                              DO/MI    LA
Mis montes se harán camino para todos.    Mi pasto abundante  medicina será,
REm                             SOL                 DO          MI
Para todo el que coma de mí, Yo seré la tierra que mana leche y miel.
REm                      LAm                                  REm
Me darás unas entrañas nuevas, mis rocas ya no harán daño a nadie,


e|-------0-------1------------3------3-------------0--0---------0-----|
B|-1---1---1---3---3--------3------3---3-----1---1----0-------0---0---|
G|---2-------2-------2--2-0------0-------0-----0------1-----1-------1-|
D|-----------------------------------------2----------2---------------|
A|-0-----------------0-----------------------3--------2--2------------|
E|----------------------------3-----------------------0---------------|


MI                   LAm                                      REm
Sólo acariciarán. Infúndeme tu Espíritu Señor y haz que se encariñe conmigo,
SOL                               DO              MI
Que quiera hacer morada en mi y así tenga sabor a Ti,
REm                                    LAm            REm                  MI
Entonces  habitaré en la tierra que es mía, y yo seré tu Pueblo y tú serás mi Dios


Liturgia

Es una buena canción para el momento de la comunión. 
Se la puede utilizar en una vigilia de Pentecostés pidiendo 
el Espíritu que es el Agua Viva, Señor y dador de vida, y en
cualquier convivencia.

                       **Solo Dios quita la sed espiritual**
Suggest correction
Creating personal tab
Creating personal tab
You can edit any tab online and save it as your Personal.

You can edit, replace or remove any tab part or add personal notes – all changes will be seen only by you.

Personal tabs can be accessed anytime from any device, even offline.
Learn more »
Give kudos to tab author, rate the tab!
1 2 3 4 5
comments
print report bad tab
guest
Wanna post a correction for this tab? Suggest correction