Oops, an error
Loading. Please wait.

Kentucky bass

by Hermano
327 views 1 this week
no commentswrite comment
1 2 3 4 5
3 more votes to show rating
add to favorites
×
Save as Personal and add changes to this tab that will be seen only by you. Learn more ›
×
You can save this tab as Personal to edit and correct it or add notes. All changes will be seen only by you. Learn more »
launch autoscroll
font size
0
reset
guitar tuner
edit
Autoscroll
slow
fast
+/-
esc
set tempo
stop
-------------------------------------------------------------------------------
                             KENTUCKY - Hermano
                        From the album ...Into the Exam Room
-------------------------------------------------------------------------------

Tabbed by: Diabolusinmusic (Talkbass handle)
E-mail: Don't e-mail me, just update the tab and credit me where due 

The timing and structure are not 100% accurate, this is an outline, you need
to listen to where the parts go and proper timing.  

Notes : The solo riff is just a variation of the verse riff.  Out of the solo  
he holds on the B then he pedals it to a build up, into the main riff and out.
Also from around 1:47-1:52ish going into the bridge the bass climbs from the
D to the B on the B string, listen to the track.  It is a pretty straight
forward song, and fun to play.

Fun Fact: The sample in the intro is Dan Aykroyd yelling at John Candy in John
Hughes film The Great Outdoors. 


Tuning: B Standard

Intro
G|---------------------------------------------------------------------------|
D|---------------------------------------------------------------------------|
A|---------------------------------------------------------------------------|
E|---------------------------------------------------------------------------|
B|-12-12-12---12-12-12---12-12-12---12-12-12---12\---------------------------|

Verse
G|---------------------------------------------------------------------------|
D|---------------------------------------------------------------------------|
A|---------------------------------------------------------------------------|
E|---------------------------------------------------------------------------|
B|-10-12---0-10-12---0-10-12---0-10-12---0-10-12---0-10-12---0-10-12---12\---|

Chorus
G|---------------------------------------------------------------------------|
D|---------------------------------------------------------------------------|
A|-7-7-----------------------7-7---------------------------------------------|
E|-----7p5h7p5----------7--------7p5h7p5-------------------------------------|
B|-------------0-0-0-0-------------------3-3-3-3-----------------------------|
Suggest correction
Creating personal tab
Creating personal tab
You can edit any tab online and save it as your Personal.

You can edit, replace or remove any tab part or add personal notes – all changes will be seen only by you.

Personal tabs can be accessed anytime from any device, even offline.
Learn more »
Give kudos to tab author, rate the tab!
1 2 3 4 5
comments
print report bad tab
guest
You may want to rate the tab now too:
select rating
Wanna post a correction for this tab? Suggest correction