Oops, an error
Loading. Please wait.

Silhouettes bass

version 1
version 1

Whole song

Interactive

442 views 1 this week
no commentswrite comment
1 2 3 4 5
1 last vote to show rating
add to favorites
×
Save as Personal and add changes to this tab that will be seen only by you. Learn more ›
×
You can save this tab as Personal to edit and correct it or add notes. All changes will be seen only by you. Learn more »
launch autoscroll
font size
0
reset
guitar tuner
edit
Autoscroll
slow
fast
+/-
esc
set tempo
stop
Author
Silhouettes
Herman's Hermits
Written by Bob Crewe and Frank Slay; released as a single with "Can't You 
Hear My Heartbeat" in the UK and "Walkin' With My Angel" in the USA as 
B-sides.

Intro:
G|------ ------ ------ ------|------ ------ ------ ------|
D|5--------------------------|-------------------------4-|
A|--------------7------------|--------------5------------|
E|---------------------------|8--------------------------|



G|------ ------ ------ ------|------ ------ ------ ------|
D|5------5-------------------|-------------------------4-|
A|--------------7------7-----|--------------5------5-7---|
E|---------------------------|8------8-------------------|


Verse:
G|------ ------ ------ ------|------ ------ ------ ------|
D|5----------4---------------|7----------4---------4-----|
A|--------------7------7-----|--------------5------------|
E|---------------------------|---------------------------|
         Took a walk   passed house         late   last
                    and    your

G|------ ------ ------ ------|------ ------ ------ ------|
D|5----------4-------------5-|7----------4---------4-----|
A|--------------7------------|--------------5------------|
E|---------------------------|---------------------------|
  night, all    shades pulled drawn         way    down
             the    were   and

G|------ ------ ------ ------|------ ------ ------ ------|
D|5----------5---------------|-------------------------4-|
A|--------------7----------7-|-----------7--5------5-7---|
E|---------------------------|8--------------------------|
  tight. From          dim    cast      two silhouettes
             within the    light                   on  the

G|------ ------ ------ ------|------ ------ ------ ------|
D|5--------------------------|-------------------------4-|
A|--------------7------------|--------------5------5-7---|
E|---------------------------|8--------------------------|
  shade, oh, a  love   -   ly couple    they made.
           what
Verse:
G|------ ------ ------ ------|------ ------ ------ ------|
D|5------5---4-------------5-|7------7---4---------4-----|
A|--------------7------------|--------------5------------|
E|---------------------------|---------------------------|
         Put his arms around  waist,        held   you
                           your

G|------ ------ ------ ------|------ ------ ------ ------|
D|5----------4-------------5-|7----------4---------4-----|
A|--------------7------------|--------------5------------|
E|---------------------------|---------------------------|
  tight, kisses I could almost taste        in     the


G|------ ------ ------ ------|------ ------ ------ ------|
D|5----------5---------------|-------------------------4-|
A|--------------7------------|-----------7--5------5-7---|
E|---------------------------|8--------8-----------------|
  night. Wondered      not the guy    whose silhouette's
                why I'm                            on  the

G|------ ------ ------ ------|------ ------ ------ ------|
D|5----------4---------------|-------------------------4-|
A|--------------7----------7-|-------5-------------5-7---|
E|---------------------------|5-------------3------------|
  shade, I couldn't       the tears  in  my eyes.
                hide
Bridge:
G|------ ------ ------ ------|------ ------ ------ ------|
D|5----------5---------------|-------------------------4-|
A|--------------7----------7-|-----------7--5------5-7---|
E|---------------------------|8--------------------------|
         a - a- a - a- a - a- aah...
                                      a - a- a - a- a - a-

G|------ ------ ------ ------|------ ------ ------ ------|
D|5----------5---------------|-------------------------4-|
A|--------------7----------7-|-----------7--5------5-7---|
E|---------------------------|8--------------------------|
         a - a- a - a- a - a- a  -   a  -   a  -   aah
  aah...
Verse (solo):
G|------ ------ ------ ------|------ ------ ------ ------|
D|5----------5---------------|-------------------------4-|
A|--------------7----------7-|-----------3--5------5-7---|
E|---------------------------|5--------------------------|



G|------ ------ ------ ------|------ ------ ------ ------|
D|5----------5---------------|-------------------------4-|
A|--------------7----------7-|--------------5------5-7---|
E|---------------------------|5----------5---------------|



G|------ ------ ------ ------|------ ------ ------ ------|
D|5----------5---------------|-------------------------4-|
A|--------------7----------7-|--------------5------5-7---|
E|---------------------------|8----------8---------------|



G|------ ------ ------ ------|------ ------ ------ ------|
D|5----------5---------------|---------------------------|
A|--------------7----------7-|--------------5------5-----|
E|---------------------------|8----------8---------------|



G|------ ------ ------ ------|------ ------ ------ ------|
D|6------6-------------------|-------------------------5-|
A|--------------8----------8-|--------------6------6-8---|
E|---------------------------|9----------9---------------|


Verse:
G|------ ------ ------ ------|------ ------ ------ ------|
D|6----------5---------------|-------------------------5-|
A|--------------8----------8-|-----------4--6------6-8---|
E|---------------------------|6--------------------------|
         Lost control, rang   bell,         I      was
                    and    your

G|------ ------ ------ ------|------ ------ ------ ------|
D|6------6---5---------------|-------------------------5-|
A|--------------8----------8-|-----------4--6------6-8---|
E|---------------------------|6--------------------------|
  sore,  let me in, or else   beat          down   your
                           I'll

G|------ ------ ------ ------|------ ------ ------ ------|
D|6----------6---------------|-------------------------5-|
A|--------------8----------8-|--------------6------6-8---|
E|---------------------------|9----------9---------------|
  door,  When   stran- who    been      two silhouettes
             two    gers   have                    on  the

G|------ ------ ------ ------|------ ------ ------ ------|
D|6--------------------------|-------------------------5-|
A|--------------8------------|--------------6------6-8---|
E|---------------------------|9--------------------------|
  shade  said   shock:   "You're     wrong  block!"
           to my              on  the
Verse:
G|------ ------ ------ ------|------ ------ ------ ------|
D|6----------6---------------|-------------------------5-|
A|--------------8------8-----|-------3---4--6------6-8---|
E|---------------------------|6--------------------------|
         Rushed to your house wings         on     my
             out           with

G|------ ------ ------ ------|------ ------ ------ ------|
D|6------6---5---------------|-------------------------5-|
A|--------------8------8-----|-----------4--6------6-8---|
E|---------------------------|6--------------------------|
  feet,  loved  like I never  loved         you,   my
             you

G|------ ------ ------ ------|------ ------ ------ ------|
D|6----------5---------------|-------------------------5-|
A|--------------8------8-----|--------------6------6-8---|
E|---------------------------|9----------9---------------|
  sweet. Vowed  you    I would be       two silhouettes
             that   and                            on  the

G|------ ------ ------ ------|------ ------ ------ ------|
D|6--------------------------|--------------6----------5-|
A|--------------8------------|-------6-------------6-8---|
E|---------------------------|6--------------------------|
  shade, all our days,    two silhouettes   shade.
           of                        on the
Outro:
G|------ ------ ------ ------|------ ------ ------ ------|
D|6----------5---------------|-------------------------5-|
A|--------------8------------|--------------6------6-8---|
E|---------------------------|9----------9---------------|
         a - a- a - a- a - a- aah...
                                      a - a- a - a- a - a-

G|------ ------ ------ ------|------ ------ ------ ------|
D|6------6-6-5---------------|-------------------------5-|
A|--------------8------8---8-|--------------6------6-8---|
E|---------------------------|9----------9---------------|
         a - a- a - a- a - a- a  -   a  -   a  -   aah...
  aah...
Fade out...

Please e-mail me for any corrections, or write a comment.

            
            
Suggest correction
Creating personal tab
Creating personal tab
You can edit any tab online and save it as your Personal.

You can edit, replace or remove any tab part or add personal notes – all changes will be seen only by you.

Personal tabs can be accessed anytime from any device, even offline.
Learn more »
Give kudos to tab author, rate the tab!
1 2 3 4 5
comments
print report bad tab
guest
You may want to rate the tab now too:
select rating
Wanna post a correction for this tab? Suggest correction